PrimaNota.ru - самый крупный в мире бесплатный архив песенных текстов, аккордов, табулатур и нот


Jimmy Herring - Lockwood Folley - таба

Регистрация Запомнить меня
Войти через:  Facebook Google Twitter Vk Yandex Mail.ru

Jimmy Herring - Lockwood Folley - таба

Печатать
Просмотров: 71
Artist: Endangered Species
Album: Endandgered Species
Release: 2000

Jimmy Herring - Guitar
T. Lavitz - Keyboard
Richie Hayward - Drums
Kenny Gradney - Bass

Key: Db minor

Time: 5/8 (5/4)


E|-------0-------------|-------0-------------|-------0-------------|-------0-------------|
B|-------------4-------|-------------4-------|-------------4-------|-------------4-------|
G|-----6---6-----6---6-|-----6---6-----6---6-|-----6---6-----6---6-|-----6---6-----6---6-|
D|---6-------6-----6---|---6-------6-----6---|---6-------6-----6---|---6-------6-----6---|
A|-4-------------------|-0-------------------|---------------------|-0-------------------|
E|---------------------|---------------------|-6-------------------|---------------------|
         
  (1 + 2 + 3 + 4 + 5 + )(1 + 2 + 3 + 4 + 5 + )(1 + 2 + 3 + 4 + 5 + )(1 + 2 + 3 + 4 + 5 + )


E|--------------------|--------------------------|----------------------------------------------------|
B|--------------------|--------------------------|----------------------------------------------------|
G|--------------------|--------------------------|----------------------------------------------------|
D|----------------2---|--------------------------|----------------2-----------------------------------|
A|-4-2----------2-----|-2-4-6--------------------|-4-2----------2------2--4--6-7--------------------2-|
E|-----4-0--2-4-----5-|-------6--4-2-0--4-5--4-3-|-----4-0--2-4-----5------------6--4-2-0--2-3--2-1---|

E|--------------------|--------------------------|------------------------------------------------------|
B|--------------------|--------------------------|------------------------------------------------------|
G|--------------------|--------------------------|------------------------------------------------------|
D|----------------2---|--------------------------|----------------2-------------------------------------|
A|-4-2----------2-----|-2-4-6--------------------|-4-2----------2------2--4--6-7------------------------|
E|-----4-0--2-4-----5-|-------6--4-2-0--4-5--4-3-|-----4-0--2-4-----5------------6--4-2-0--2-3--2-0-3-2-|

1:05

E|2~~~~|1~~~~|0~~~~|
B|2~~~~|1~~~~|0~~~~|
G|3~~~~|2~~~~|1~~~~|
D|4~~~~|3~~~~|2~~~~|
A|4~~~~|3~~~~|2~~~~|
E|2~~~~|1~~~~|0~~~~|
   (Gb)  (F)   (E)

Bridge:

Time: 6/8 Key: E Major                      
   
   (E Maj7 voicings)                          Gb   A  E      
E|--0----4----7---xx---11--|                |--2---5--7---|--2---5---7----------|
B|--0----4----9---12---12--|                |--2---5--9---|--2---5---7h9--7-----|
G|--1----4----8---13---13--|                |--3---6--9---|--3---6---8-------9--|
D|--1----2----9---13---14--| E Major 7 vamp |--4---7--9---|--4---7---9-------9--|
A|-(2)--(2)---7---xx-------| for quite some |--4---7--7---|--4---7---7----------|
E|--0---(0)---x---12-------| time, then.... |--2---5--0---|--2---5--------------|

E|2~~~~|1~~~~|0~~~~|
B|2~~~~|1~~~~|0~~~~|
G|3~~~~|2~~~~|1~~~~|
D|4~~~~|3~~~~|2~~~~|
A|4~~~~|3~~~~|2~~~~|
E|2~~~~|1~~~~|0~~~~|
   (Gb)  (F)   (E)


Добавлено: 27.12.2015
Вам также может быть интересно:
Другие материалы по этой песне:
  • Аккорды и текст

Страница создана 27.12.2015
http://primanota.ru/jimmy-herring/lockwood-folley-chords.htm
Привет, Гость.
Предлагаем пройти революционный курс по гитаре.
Подарок от PrimaNota.Ru, забирай!