PrimaNota.ru - самый крупный в мире бесплатный архив песенных текстов, аккордов, табулатур и нот


Jimmy Guiffre - Four Brothers - таба, видео

Регистрация Запомнить меня
Войти через:  Facebook Google Twitter Vk Yandex Mail.ru

Jimmy Guiffre - Four Brothers - таба, видео

Печатать
Просмотров: 57
-----------------------------------------------------------------------------------------
                                       FOUR BROTHERS
-----------------------------------------------------------------------------------------
Tabbed by: Saitenstechen
Tuning: EADGBe

Upbeat and complex (nonetheless catchy) jazz tune, originally written by Jimmy Guiffre.
Often covered with vocals, most famously by the Manhatten Transfer.

I'll tab out a lower octave because the higher one can be played by a saxophone, 
soprano singer, trumpet, piano or the like. 
Also, I will not use open strings so you can shift this around if you need to play in another key.

Key: Ab(?)


Part [A]

   Bb7               Bbm7      Eb+7      Ab               F7
e|-----------------|-----------------|-----------------|------------------|
B|-----------------|-----------------|-----------------|------------------|
G|-5-4-5-4-5-------|-------5-4-------|-------3---------|------------------|
D|-----------6-3---|---3-6-----5-----|-----5-----6-----|-5--------------5-|
A|---------------5-|-4-----------6-4-|-3-6-----------6-|---8--------------|
E|-----------------|-----------------|-----------------|------------------|

  Bm7               Cm7     F7                  Bbm7    Eb+7      Ab
e|-----------------|----------------|         |-----------------|------------------|
B|-----------------|----------------|         |-----------------|------------------|
G|-----------------|----------------| ending  |-----------------|----------------4-| repeat
D|-6-------6-------|-5--------------|  #1:    |-----------------|------------------| from [A],
A|---8-------8-----|--------------7-|         |-8-------6-----6-|-(6)--------------|  then
E|-----9-6-----9-6-|----6-5---------|         |---9-8-6---6-7---|------------------|


           Bbm7   Eb7        Ab
         |-----------------|------------------|
         |-----------------|------------------|
 ending  |-----------------|------------------|
 #2:     |-----------------|----------------5-|
         |-8-------7-------|------------------|
         |---9-8-6---7-8-4-|-(4)--------------|


Part [B]

   Dbm7     Gb7        B                 Em7      A7       D
e|------------------|-----------------|-----------------|------------------|
B|------------------|-----------------|-----------------|------------------|
G|------------------|-----------------|-----------------|------------------|
D|-6-------------6--|-----------------|-4-------7-4-5-7-|-(7)------------6-|
A|---8---------7----|-9-6-7-9---------|---5-4-----------|------------------|
E|-----9-7-6-9------|-----------------|-------7---------|------------------|

   Dm7     G7         C7      A7        Dm7    G7         Cm7      F7
e|------------------|-----------------|-----------------|------------------|
B|------------------|-----------------|-----------------|------------------|
G|------------------|-----------------|-----------------|------------------|
D|----------------6-|-5---------7-5---|-5-3-------------|------------------|
A|-8-7-5------5-8---|---8-7-5-------7-|-------3-2---5-3-|-3----------------|
E|-------8-7--------|---------9-------|-----------------|------------------|


Final Part [A']

   Bb7               Bbm7      Eb+7      Ab               F7
e|-----------------|-----------------|-----------------|------------------|
B|-----------------|-----------------|-----------------|------------------|
G|-5-4-5-4-5-------|-------5-4-------|-------3---------|------------------|
D|-----------6-3---|---3-6-----5-----|-----5-----6-----|-5--------------5-|
A|---------------5-|-4-----------6-4-|-3-6-----------6-|---8--------------|
E|-----------------|-----------------|-----------------|------------------|

  Bm7               Cm7     F7        Ab
e|-----------------|----------------|-----------------|------------------|
B|-----------------|----------------|-----------------|------------------|
G|-----------------|----------------|-----------------|------------------| 
D|-6-------6-------|-5--------------| ----------------|------------------| 
A|---8-------8-----|--------------7-|-8-------7-------|------------------|  
E|-----9-6-----9-6-|----6-5---------|---9-8-6---7-8-4-|-(4)--------------|


*************************************************************************************************

Here are some voicings: 
Bb 6x676x               Bbm 6x666x              Eb+7 x6544x
Ab x6654x               F7  x8786x              Cm7  8x888x
Em7 x7578x              A7  5x565x.

Enjoy!
Добавлено: 29.12.2015
Другие материалы по этой песне:

Страница создана 12.04.2012
http://primanota.ru/jimmy-guiffre/four-brothers-chords.htm
Привет, Гость.
Предлагаем пройти революционный курс по гитаре.
Подарок от PrimaNota.Ru, забирай!