PrimaNota.ru - самый крупный в мире бесплатный архив песенных текстов, аккордов, табулатур и нот


Jimmy Fontanez - Cha Cappella - таба, видео

Регистрация Запомнить меня
Войти через:  Facebook Google Twitter Vk Yandex Mail.ru

Jimmy Fontanez - Cha Cappella - таба, видео

Печатать
Просмотров: 35
-------------------------------------------------------------------------------
            CHA CAPPELLA - Jimmy Fontanez/Media Right Productions
-------------------------------------------------------------------------------
Tabbed by: hellsminion124
E-mail:

Tuning: Standard

e|---------------------------------------------------------------------------|
B|---------------------------------------------------------------------------|
G|---------------------------------------------------------------------------|
D|------------------4---4----------------------------------------------------|
A|-----0----4---7---------------------------5----------4---------------------|
E|------------------------------0---4---7----------7-------------------------|
   
  
e|---------------------------------------------------------------------------|
B|---------------------------------------------------------------------------|
G|---------------------------------------------------------------------------|
D|------------------4---4----------------------------------------------------|
A|-----0----4---7---------------------------5-x------------------------------|
E|------------------------------0---4---7------------------------------------|
  


************************************

| /   slide up
| \   slide down
| h   hammer-on
| p   pull-off
| ~   vibrato
| +   harmonic
| x   Mute note
| b   Bend
| pb  Pre-bend
| br  Bend release
| pbr Pre-bend release
| brb Bend release bend

************************************
Добавлено: 28.05.2016
Другие материалы по этой песне:
  • Аккорды и текст

Страница создана 28.05.2016
http://primanota.ru/jimmy-fontanez/cha-cappella-chords.htm
Привет, Гость.
Предлагаем пройти революционный курс по гитаре.
Подарок от PrimaNota.Ru, забирай!