PrimaNota.ru - самый крупный в мире бесплатный архив песенных текстов, аккордов, табулатур и нот


Jimmy Eat World - Let It Happen - текст песни, таба, бас-таба, видео

Регистрация Запомнить меня
Войти через:  Facebook Google Twitter Vk Yandex Mail.ru

Jimmy Eat World - Let It Happen - текст песни, таба, бас-таба, видео

Печатать
Просмотров: 167
Авторы: Rick Burch, Tom Linton, Zach Lind, Jim Adkins

Song: Let It Happen
Album: Chase The Light
Band: Jimmy Eat World
Tabber: Calum Neil (afirock74@hotmail.com)
Tuning: Standard Tuning + Drop D + Capo on 1

Intro/Verse Guitar 1:
e|-----------------------------------------|
b|-----------------------------------------|
g|-2-2--2-2--2-2--2-2--2-2--2-2--2-2--2-2--|
d|-2-2--2-2--2-2--2-2--2-2--2-2--2-2--2-2--|
a|-0-0--0-0--0-0--0-0--0-0--0-0--0-0--0-0--|
d|-4-4--4-4--2-2--2-2--0-0--0-0------------|

Intro/Verse Guitar 2:
e|--0--0--0--0-0-0--0----0-0---0-0-0---------|
b|--10-10-10-9-5-7--5b---2-2b--2h3-2--0-0-0--|
g|------------------------------------1-1h2--|
d|-------------------------------------------|
a|-------------------------------------------|
d|-------------------------------------------|

Verse Riff:
e|-----------------------------------|
b|----10--10--10--10--10--10--10-----|
g|--11--11--9---9---7---7---6----6---|
d|-----------------------------------|
a|-----------------------------------|
d|-----------------------------------|

Pre-Chorus Riff:
e|--0--0--0--0--0--0--0--0--0--0--0--0---|
b|--10-10-10-10-10-10-10-10-10-10-10-10--|
g|---------------------------------------|
d|---------------------------------------|
a|---------------------------------------|
d|---------------------------------------|

Chorus Guitar 1:
e|---------------------------------------------------------------------|
b|---------------------------------------------------------------------|
g|-6-6-6-6-6-6-6-6--4-4-4-4-4-4-4-4--2-2-2-2-2-2-2-2--9-9-9-9-9-9-9-9--|
d|-4-4-4-4-4-4-4-4--2-2-2-2-2-2-2-2--0-0-0-0-0-0-0-0--7-7-7-7-7-7-7-7--|
a|-4-4-4-4-4-4-4-4--2-2-2-2-2-2-2-2--0-0-0-0-0-0-0-0--7-7-7-7-7-7-7-7--|
d|-4-4-4-4-4-4-4-4--2-2-2-2-2-2-2-2--0-0-0-0-0-0-0-0--7-7-7-7-7-7-7-7--|

Chorus Guitar 2:
e|--5-5-5-5-5-5-5-5-5-5-5-5-5-5-5-5-5-5-5-5-5-5-5-5-5-5-5-5-5-5---|
b|--x-x-x-x-x-x-x-x-x-x-x-x-x-x-x-x-x-x-x-x-x-x-x-x-x-x-x-x-x-x---|
g|--2-2-2-2-2-2-2-2-2-2-2-2-2-2-2-2-2-2-2-2-2-2-2-2-2-2-2-2-2-2---|
d|--4-4-4-4-4-4-2-2-2-2-2-2-0-0-0-0-0-0-0-0-0-0-0-0-0-0-0-0-0-0---|
a|----------------------------------------------------------------|
d|----------------------------------------------------------------|

Post-Chorus Riff:
e|-----------------------|
b|----5---5---5---5------|
g|---2-2-2-2-2-2-2-2-----|
d|--4---2---0------------|
a|--------------4--------|
d|-----------------------|

Pre 2nd Chorus Guitar 1:
e|------------------------------------------------------|
b|------------------------------------------------------|
g|----------------------------7-7-7-7-7-7---4-4/6-4-2---|
d|--7-7-7-7-7-7--6-6-6-6-6-6--x-x-x-x-x-x---x-x-x-x-x---|
a|--x-x-x-x-x-x--x-x-x-x-x-x--5-5-5-5-5-5---2-2/4-2-0---|
d|--7-7-7-7-7-7--6-6-6-6-6-6----------------------------|

Pre 2nd Chorus Guitar 2:
e|---------------------------------------------|
b|---------------------------------------------|
g|---------------------------------------------|
d|-7-7-7-7-7--7-7-7-7-7--7-7-7-7-7-7-7-7-7-7---|
a|-0-0-0-0-0--0-0-0-0-0--0-0-0-0-0-0-0-0-0-0---|
d|-4-4-4-4-4--6-6-6-6-6--7-7-7-7-7-7-7-7-7-7---|

Pre Bridge:
e|-----------------5--5---5---5------|
b|----10--10--10--9--9--10--10-------|
g|--11--11--9---9--------------------|
d|-----------------------------------|
a|-----------------------------------|
d|-----------------------------------|

Bridge:
e|---------------------------------------------------------------------|
b|-12-12-12-12-------------------------10-10---------------------------|
g|-x--x--x--x----11-11-11-11-11-13-13--x--x---9-9-9-9--6-6-6/4-4/2-2---|
d|-9--9--9--9----x--x--x--x--x---x--x--7--7---x-x-x-x--x-x-x/x-x/x-x---|
a|---------------9--9--9--9--9--11-11---------7-7-7-7--4-4-4/2-2/0-0---|
d|---------------------------------------------------------------------|

e|-------------------------------------------------------------10-10---|
b|------------------------10-10/12-----------10-10-10-10-12-12--x--x---|
g|--11-11-11-11-11-13-13--x--x-/x---9-9-9-9--x--x--x--x--x--x---7--7---|
d|--x--x--x--x--x---x--x--7--7-/9---x-x-x-x--7--7--7--7--9--9----------|
a|--9--9--9--9--9--11-11------------7-7-7-7----------------------------|
d|---------------------------------------------------------------------|

e|-----------------------------------------------------------------------12--12-9--|
b|-10-10-10-10-10-10-10-10-9-9-9-9-9-9-9-9--10-10-10-10-10-10-10-10--9h10--10------|
g|-x--x--x--x--x--x--x--x--x-x-x-x-x-x-x-x--x--x--x--x--x--x--x--x-----------------|
d|-7--7--7--7--7--7--7--7--6-6-6-6-6-6-6-6--7--7--7--7--7--7--7--7-----------------|
a|---------------------------------------------------------------------------------|
d|---------------------------------------------------------------------------------|

e|---------------------------------------------------------------------------------------|
b|-10-10-10-10-10-10-10-10-9-9-9-9-9-9-9-9--10-10-10-10-10-10-10-10--14--14--12-12-10-10-|
g|-x--x--x--x--x--x--x--x--x-x-x-x-x-x-x-x--x--x--x--x--x--x--x--x---x---x---x--x--x--x--|
d|-7--7--7--7--7--7--7--7--6-6-6-6-6-6-6-6--7--7--7--7--7--7--7--7---11--11--9--9--7--7--|
a|---------------------------------------------------------------------------------------|
d|---------------------------------------------------------------------------------------|

Last Chorus Guitar 2:
e|----------------------------------------------------------------------------------------|
b|-10-10-10-10-10-10-10-10-9-9-9-9-9-9-9-9--10-10-10-10-10-10-10-10--12-12-12-12-12-12-12-|
g|-x--x--x--x--x--x--x--x--x-x-x-x-x-x-x-x--x--x--x--x--x--x--x--x---x--x--x--x--x--x--x--|
d|-7--7--7--7--7--7--7--7--6-6-6-6-6-6-6-6--7--7--7--7--7--7--7--7---9--9--9--9--9--9--9--|
a|----------------------------------------------------------------------------------------|
d|----------------------------------------------------------------------------------------|

e|---------------------------------------------------------------------------------------|
b|-10-10-10-10-10-10-10-10-9-9-9-9-9-9-9-9--10-10-10-10-10-10-10-10--14--14--12-12-10-10-|
g|-x--x--x--x--x--x--x--x--x-x-x-x-x-x-x-x--x--x--x--x--x--x--x--x---x---x---x--x--x--x--|
d|-7--7--7--7--7--7--7--7--6-6-6-6-6-6-6-6--7--7--7--7--7--7--7--7---11--11--9--9--7--7--|
a|---------------------------------------------------------------------------------------|
d|---------------------------------------------------------------------------------------|

Outro Guitar 1:
e|-----------------------|
b|----5---5---5---5------|
g|---2-2-2-2-2-2-2-2-----|
d|--4---2---0------------|
a|--------------4--------|
d|-----------------------|

Outro Guitar 2:
e|-----------------------------------|
b|----10--10--10--10--10--10--10-----|
g|--11--11--9---9---7---7---6----6---|
d|-----------------------------------|
a|-----------------------------------|
d|-----------------------------------|
Добавлено: 07.05.2012
Другие материалы по этой песне:

Страница создана 16.04.2012
http://primanota.ru/jimmy-eat-world/let-it-happen-chords.htm
Привет, Гость.
Предлагаем пройти революционный курс по гитаре.
Подарок от PrimaNota.Ru, забирай!