PrimaNota.ru - самый крупный в мире бесплатный архив песенных текстов, аккордов, табулатур и нот


Jimmy Eat World - Closer - текст песни, таба, бас-таба, видео

Регистрация Запомнить меня
Войти через:  Facebook Google Twitter Vk Yandex Mail.ru

Jimmy Eat World - Closer - текст песни, таба, бас-таба, видео

Печатать
Просмотров: 153
Уроки эстрадного вокала в Санкт-Петербурге
-------------------------------------------------------------------------------
                             CLOSER - JIMMY EAT WORLD - STAY ON MY SIDE TONIGHT (2005)
-------------------------------------------------------------------------------
Tabbed by: adoreizi

Tuning: EADGBe

Tabbed by Songsterr but wasn't on UG. Enjoy.

INTRO

e|---------------------------------------------------------------------------|
B|-----------------------------3--0------------------------------------------|
G|---0--2--4--4--4/2--2--2---------------------------------------------------|
D|--------------------------0------------------------------------------------|
A|---------------------------------------------------------------------------|
E|---------------------------------------------------------------------------|

e|---------------------------------------------------------------------------|
B|---------------------------------------------------------------------------|
G|---7--7--7--7--7--7--7-----------------------------------------------------|
D|---x--x--x--x--x--x--x-----------------------------------------------------|
A|---5--5--5--5--5--5--5-----------------------------------------------------|
E|---------------------------------------------------------------------------|

VERSE A (X4)

e|---------------------------------------------------------------------------|
B|-----------------------3--0------------------------------------------------|
G|---4--4--4/2--2--2---------------------------------------------------------|
D|--------------------0------------------------------------------------------|
A|---------------------------------------------------------------------------|
E|---------------------------------------------------------------------------|

e|---------------------------------------------------------------------------|
B|---------------------------------------------------------------------------|
G|---7--7--7--7--7--7--7-----------------------------------------------------|
D|---x--x--x--x--x--x--x-----------------------------------------------------|
A|---5--5--5--5--5--5--5-----------------------------------------------------|
E|---------------------------------------------------------------------------|

VERSE B

e|---------------------------------------------------------------------------|
B|---------------------------------------------------------------------------|
G|---4--4--4/2--2--2-----2--0------------------------------------------------|
D|--------------------0------------------------------------------------------|
A|---------------------------------------------------------------------------|
E|---------------------------------------------------------------------------|

CHORUS (X2)

e|---------------------------------------------------------------------------|
B|----------3-----------------------1----1h3---------------------------------|
G|-------0-----------0-----------0------------4------4--4--4/2--2------------|
D|----4-----------------------4----------------------------------------------|
A|---------------------------------------------------------------------------|
E|---------------------------------------------------------------------------|

BREAK A (X2)

e|---------------------------------------------------------------------------|
B|---------------------------------------------------------------------------|
G|--11-11-11-11-11-11-11-11--------------------------------------------------|
D|---x--x--x--x--x--x--x--x--------------------------------------------------|
A|---9--9--9--9--9--9--9--9--------------------------------------------------|
E|---------------------------------------------------------------------------|

BREAK B

e|---------------------------------------------------------------------------|
B|---------------------------------------------------------------------------|
G|---12----12--11-11-11-11-11-11-11-11-11-11-11-11-11------------------------|
D|---x------x--x--x--x--x--x--x--x--x--x--x--x--x--x-------------------------|
A|---10----10--9--9--9--9--9--9--9--9--9--9--9--9--9-------------------------|
E|---------------------------------------------------------------------------|

VERSE A (X3)

e|---------------------------------------------------------------------------|
B|-----------------------3--0------------------------------------------------|
G|---4--4--4/2--2--2---------------------------------------------------------|
D|--------------------0------------------------------------------------------|
A|---------------------------------------------------------------------------|
E|---------------------------------------------------------------------------|

e|---------------------------------------------------------------------------|
B|---------------------------------------------------------------------------|
G|---7--7--7--7--7--7--7-----------------------------------------------------|
D|---x--x--x--x--x--x--x-----------------------------------------------------|
A|---5--5--5--5--5--5--5-----------------------------------------------------|
E|---------------------------------------------------------------------------|

VERSE B

e|---------------------------------------------------------------------------|
B|---------------------------------------------------------------------------|
G|---4--4--4/2--2--2-----2--0------------------------------------------------|
D|--------------------0------------------------------------------------------|
A|---------------------------------------------------------------------------|
E|---------------------------------------------------------------------------|

CHORUS (X2)

e|---------------------------------------------------------------------------|
B|----------3-----------------------1----1h3---------------------------------|
G|-------0-----------0-----------0------------4------4--4--4/2--2------------|
D|----4-----------------------4----------------------------------------------|
A|---------------------------------------------------------------------------|
E|---------------------------------------------------------------------------|

INTERLUDE A (X4)

e|---------------------------------------------------------------------------|
B|---------------------------------------------------------------------------|
G|---2-----2--4-----4--------------------------------------------------------|
D|------0--------0-----------------------------------------------------------|
A|---------------------------------------------------------------------------|
E|---------------------------------------------------------------------------|

INTERLUDE B (X4)

Harmonics

e|---------------------------------------------------------------------------|
B|------5--------------------------------------------------------------------|
G|---5-----5--7--7---------7--7--7--7--7-------------------------------------|
D|------------------9------x--x--x--x--x-------------------------------------|
A|-------------------------5--5--5--5--5-------------------------------------|
E|---------------------------------------------------------------------------|

INTERLUDE C (X2)

e|---------------------------------------------------------------------------|
B|---------------------------------15-11--11-10--10-11-----------------------|
G|---12--11--7--4/2--2/7--4--------x--x---x-x---x-x--------------------------|
D|---------------------------------12/9---9/7---7/9--------------------------|
A|---------------------------------------------------------------------------|
E|---------------------------------------------------------------------------|

e|---------------------------------------------------------------------------|
B|---------------------------------------------------------------------------|
G|---12--11--7--4/2--2/7--4--------------------------------------------------|
D|---------------------------------12/9---9/7---7/9--------------------------|
A|---------------------------------------------------------------------------|
E|---------------------------------------------------------------------------|

BREAK A (X8)

e|---------------------------------------------------------------------------|
B|---7--10--8--7--8--7--8----------------------------------------------------|
G|-------------------------7-------------------------------------------------|
D|---------------------------------------------------------------------------|
A|---------------------------------------------------------------------------|
E|---------------------------------------------------------------------------|

BREAK B (X2)

e|-------------------------------------------------------------------------------------|
B|---8--7-----8--7-----8--7-----8--7-----8--10--7--------------------------------------|
G|---------8--------8--------8--------8------------8-----------------------------------|
D|-------------------------------------------------------------------------------------|
A|-------------------------------------------------------------------------------------|
E|-------------------------------------------------------------------------------------|

SOLO A

e|---------------------------------------------------------------------------|
B|---10----12--8--8----8--------13--------13--------12--------12-------------|
G|---------------------------------------------------------------------------|
D|---------------------------------------------------------------------------|
A|---------------------------------------------------------------------------|
E|---------------------------------------------------------------------------|

e|---------------------------------------------------------------------------|
B|---10--------10----8--7----8----10--------10----12--8--8----8--------------|
G|---------------------------------------------------------------------------|
D|---------------------------------------------------------------------------|
A|---------------------------------------------------------------------------|
E|---------------------------------------------------------------------------|

e|---------------------------------------------------------------------------|
B|---13--------13--------12--------12--------10--------10--------------------|
G|---------------------------------------------------------------------------|
D|---------------------------------------------------------------------------|
A|---------------------------------------------------------------------------|
E|---------------------------------------------------------------------------|

SOLO B (X4)

e|---------------------------------------------------------------------------|
B|---------------------------------------------------------------------------|
G|---12--12--12--11-11-11-11-11----------------------------------------------|
D|---x---x---x---x--x--x--x--x-----------------------------------------------|
A|---10--10--10--9--9--9--9--9-----------------------------------------------|
E|---------------------------------------------------------------------------|

e|---------------------------------------------------------------------------|
B|---------------------------------------------------------------------------|
G|---11-11-11-11-11-11-11-11-------------------------------------------------|
D|---x--x--x--x--x--x--x--x--------------------------------------------------|
A|---9--9--9--9--9--9--9--9--------------------------------------------------|
E|---------------------------------------------------------------------------|

SOLO C (X3)

e|---------------------------------------------------------------------------|
B|---20--20--20--20--20--20--20--20-----------------=------------------------|
G|---x-------x-------x-------x-----------------------------------------------|
D|---17------17------17------17----------------------------------------------|
A|---------------------------------------------------------------------------|
E|---------------------------------------------------------------------------|

e|---19--19--19--19--19--19--19--19------------------------------------------|
B|---x-------x-------x-------x-----------------------------------------------|
G|---16------16------16------16----------------------------------------------|
D|---------------------------------------------------------------------------|
A|---------------------------------------------------------------------------|
E|---------------------------------------------------------------------------|

SOLO D

e|---------------------------------------------------------------------------|
B|---22--22--22--22--22--22--22--22-----------------=------------------------|
G|---x-------x-------x-------x-----------------------------------------------|
D|---19------19------19------19----------------------------------------------|
A|---------------------------------------------------------------------------|
E|---------------------------------------------------------------------------|

e|---------------------------------------------------------------------------|
B|---20--20--20--20--20--20--20--20-----------------=------------------------|
G|---x-------x-------x-------x-----------------------------------------------|
D|---17------17------17------17----------------------------------------------|
A|---------------------------------------------------------------------------|
E|---------------------------------------------------------------------------|

e|---------------------------------------------------------------------------|
B|---------------------------------------------------------------------------|
G|---12--12---12---12--12--12--12--12-12---12--------------------------------|
D|---x---x-----x---x---x---x---x---x---x---x---------------------------------|
A|---10--10----10--10--10--10--10--10--10--10--------------------------------|
E|---------------------------------------------------------------------------|

e|---------------------------------------------------------------------------|
B|---------------------------------------------------------------------------|
G|---12--12---12---12--12--12--12--12-12---12\11-----------------------------|
D|---x---x-----x---x---x---x---x---x---x---x\x-------------------------------|
A|---10--10----10--10--10--10--10--10--10--10\9------------------------------|
E|---------------------------------------------------------------------------|

e|---------------------------------------------------------------------------|
B|---------------------------------------------------------------------------|
G|---11--11---11---11--11--11--11--11-11---11--------------------------------|
D|---x---x----x----x---x---x---x---x--x----x---------------------------------|
A|---9---9----9----9---9---9---9---9--9----9---------------------------------|
E|---------------------------------------------------------------------------|

e|---------------------------------------------------------------------------|
B|---------------------------------------------------------------------------|
G|---11--11---11---11--11--11--11--11-11---11--------------------------------|
D|---x---x----x----x---x---x---x---x--x----x---------------------------------|
A|---9---9----9----9---9---9---9---9--9----9---------------------------------|
E|---------------------------------------------------------------------------|

INTRO

e|---------------------------------------------------------------------------|
B|-----------------------------3--0------------------------------------------|
G|---0--2--4--4--4/2--2--2---------------------------------------------------|
D|--------------------------0------------------------------------------------|
A|---------------------------------------------------------------------------|
E|---------------------------------------------------------------------------|

e|---------------------------------------------------------------------------|
B|---------------------------------------------------------------------------|
G|---7--7--7--7--7--7--7-----------------------------------------------------|
D|---x--x--x--x--x--x--x-----------------------------------------------------|
A|---5--5--5--5--5--5--5-----------------------------------------------------|
E|---------------------------------------------------------------------------|

VERSE A (X4)

e|---------------------------------------------------------------------------|
B|-----------------------3--0------------------------------------------------|
G|---4--4--4/2--2--2---------------------------------------------------------|
D|--------------------0------------------------------------------------------|
A|---------------------------------------------------------------------------|
E|---------------------------------------------------------------------------|

e|---------------------------------------------------------------------------|
B|---------------------------------------------------------------------------|
G|---7--7--7--7--7--7--7-----------------------------------------------------|
D|---x--x--x--x--x--x--x-----------------------------------------------------|
A|---5--5--5--5--5--5--5-----------------------------------------------------|
E|---------------------------------------------------------------------------|

VERSE B

e|---------------------------------------------------------------------------|
B|---------------------------------------------------------------------------|
G|---4--4--4/2--2--2-----2--0------------------------------------------------|
D|--------------------0------------------------------------------------------|
A|---------------------------------------------------------------------------|
E|---------------------------------------------------------------------------|

OUTRO (X2)

e|---------------------------------------------------------------------------|
B|-----------------------3--0------------------------------------------------|
G|---4--4--4/2--2--2---------------------------------------------------------|
D|--------------------0------------------------------------------------------|
A|---------------------------------------------------------------------------|
E|---------------------------------------------------------------------------|

e|---------------------------------------------------------------------------|
B|---------------------------------------------------------------------------|
G|---7--7--7--7--7--7--7-----------------------------------------------------|
D|---x--x--x--x--x--x--x-----------------------------------------------------|
A|---5--5--5--5--5--5--5-----------------------------------------------------|
E|---------------------------------------------------------------------------|

e|---------------------------------------------------------------------------|
B|---------------------------------------------------------------------------|
G|---------------------------------------------------------------------------|
D|---------------------------------------------------------------------------|
A|---------------------------------------------------------------------------|
E|---------------------------------------------------------------------------|


************************************

| /   slide up
| \   slide down
| h   hammer-on
| p   pull-off
| ~   vibrato
| +   harmonic
| x   Mute note
| b   Bend
| pb  Pre-bend
| br  Bend release
| pbr Pre-bend release
| brb Bend release bend

************************************
Добавлено: 12.02.2016
Другие материалы по этой песне:

Страница создана 07.03.2012
http://primanota.ru/jimmy-eat-world/closer-chords.htm
Привет, Гость.
Предлагаем пройти революционный курс по гитаре.
Подарок от PrimaNota.Ru, забирай!