PrimaNota.ru - самый крупный в мире бесплатный архив песенных текстов, аккордов, табулатур и нот


Jimmy Chamberlin Complex - Life Begins Again - таба, видео

Регистрация Запомнить меня
Войти через:  Facebook Google Twitter Vk Yandex Mail.ru

Jimmy Chamberlin Complex - Life Begins Again - таба, видео

Печатать
Просмотров: 61
ARTIST:  Jimmy Chamberlin Complex
SONG:    Life Begins Again
ALBUM:   "Life Begins Again"
Tabbed by: James Matthew Black,
Email:     slowmagicrecords@gmail.com

This tab is my own work and is not taken
out of a book or magazine.

Intro:

I play the open A and D notes on the E and A
strings. Playing this way, you will need to slide up
to the E note with sounds good.

e|------------------------------------------------|
b|----------------------------------------8-8-6---|
g|------9-9-7-------9-9-7-------7-7-5-------------|
d|-------------------------0-0--------------------|
a|--0-0-------------------------------8-8---------|
e|-------------8-8--------------------------------|

e|------------------------------------------------|
b|------------------------------------------------|
g|------9-9-7-------9-9-7-------7-7-5-7b-7b-7b-7b-|
d|-------------------------0-0--------------------|
a|--0-0-------------------------------------------|
e|-------------8-8--------------------------------|
    *more or less, bend up, down, release ^


VERSE (This is what I'm hearing):

e|------------------------------------------------|
b|---------8-----------8-----------8--10---8------|
g|------9-----------9-----------9--------9--------|
d|--10----------10----------10--------------------|
a|------------------------------------------------|
e|------------------------------------------------|

With every breath you take, life begins again...

e|------------------------------------------------|
b|---------8--------------------------------------|
g|------9----------9-------10--9------10--9-------|
d|--10---------10-----10----------10---------10---|
a|------------------------------------------------|
e|------------------------------------------------|

AT THE END OF THE VERSE, PLAY THIS:
e|------------------------------------------------|
b|------------------------------------------------|
g|-7b-7b-7b-7b-7b-7b-7b-7b------------------------|
d|------------------------------------------------|
a|------------------------------------------------|
e|------------------------------------------------|
*More or less... bend up, down, release

PLAY INTRO RIFF AGAIN

SECOND VERSE, SAME AS THE FIRST.  :)

BRIDGE (These are the chords, listen for rhythm):
e|------------------------------------------------|
b|------------------------------------------------|
g|10----------------------------------------------|
d|10-----------10-------------13------------------|
a|-8-----------10-------------13------------------|
e|--------------8-------------11------------------|

A vision came before me crystalline...

e|------------------------------------------------|
b|------------------------------------------------|
g|10----------------------------------------------|
d|10-----------10-------------14------------------|
a|-8-----------10-------------14------------------|
e|--------------8-------------12------------------|

BREAK (This is where stuff gets weird, I'm not sure if
what I have is accurate).  Some dissonant chord with
heavy effects:

e|------------------------------------------------|
b|------------------------------------------------|
g|------------------------------------------------|
d|--17--@-@-*-&-----------------------------------|
a|--15--@-@-*-&--NOISE----------------------------|
e|--12--@-@-*-&-----------------------------------|

JAZZY PART:
e|------------------------------------------------|
b|-11-----15--------------------------------------|
g|-10-----14------14--13--------------------------|
d|----------------14--13--------------------------|
a|------------------------------------------------|
e|------------------------------------------------| 

e|------------------------------------------------|
b|------------------------------------------------|
g|-12-12--13-12---12---12---13---12---------------|
d|------------------------------------------------|
a|------------------------------------------------|
e|------------------------------------------------|

e|------------------------------------------------|
b|-11-----15--------------------------------------|
g|-10-----14------14--13--------------------------|
d|----------------14--13--------------------------|
a|------------------------------------------------|
e|------------------------------------------------|

Be just be...

e|------------------------------------------------|
b|------------------------------------------------|
g|-12-12--13-12---12---12---13---12---------------|
d|------------------------------------------------|
a|------------------------------------------------|
e|------------------------------------------------|

Hovering and wondering, whispering in choral dreams

e|------------------------------------------------|
b|------------------------------------------------|
g|-12-12--14-12---12---12---14---12---------------|
d|------------------------------------------------|
a|------------------------------------------------|
e|------------------------------------------------|

of all the kings and all the queens...

e|------------------------------------------------|
b|------------------------------------------------|
g|-12-12--13-12---12---12---13---12---------------|
d|------------------------------------------------|
a|------------------------------------------------|
e|------------------------------------------------|

All of you and all of me...

e|------------------------------------------------|
b|-11-----15--------------------------------------|
g|-10-----14------14--13--------------------------|
d|----------------14--13--------------------------|
a|------------------------------------------------|
e|------------------------------------------------|

Be just be....

NOISES

THIRD VERSE (ALSO STUFF FROM EARLIER VERSES):
e|------------------------------------------------|
b|------------------------------------------------|
g|-12~~~~~~~~~~~~~~~~~~b13~~~~~~~~~~~-------------|
d|------------------------------------------------|
a|------------------------------------------------|
e|------------------------------------------------|
Feedback

e|------------------------------------------------|
b|-11-----15--------------------------------------|
g|-10-----14------14--13--------------------------|
d|----------------14--13--------------------------|
a|----------------12--11--------------------------|
e|------------------------------------------------|

Be just be....
     
Добавлено: 25.07.2013
Вам также может быть интересно:
Другие материалы по этой песне:
  • Аккорды и текст

Страница создана 25.07.2013
http://primanota.ru/jimmy-chamberlin-complex/life-begins-again-chords.htm
Привет, Гость.
Предлагаем пройти революционный курс по гитаре.
Подарок от PrimaNota.Ru, забирай!