PrimaNota.ru - самый крупный в мире бесплатный архив песенных текстов, аккордов, табулатур и нот


Jimmy Buffett - Jolly Mon Sing - текст песни, таба, видео

Регистрация Запомнить меня
Войти через:  Facebook Google Twitter Vk Yandex Mail.ru

Jimmy Buffett - Jolly Mon Sing - текст песни, таба, видео

Печатать
Просмотров: 129
JOLLY MON SING by JIMMY BUFFETT
from the Album: Boats, Beaches, Bars, and Ballads

from allskillsguitar@yahoo.com (Paul Kilgo)

i'm putting this together a little fast, but i
noticed it wasn't on , and it really deserves to be on there.

play VERY fast
 E |----3-------3---------5---3-------|
 B |-----5--------5---------6---------|
 G |5-5----5-5------5-5---------5-5-5-|
 D |----------------------------------|
 A |----------------------------------|
 E |----------------------------------|

 E |----3-------3--------------|
 B |------5-------5------3---1-|
 G |5-5-----5-5-----5-5----4---|
 D |---------------------------|
 A |---------------------------|
 E |---------------------------|
this pretty much continues the rest of
song, but there are a few bridges in it. 
     
Добавлено: 12.10.2013
Другие материалы по этой песне:
  • Аккорды и текст

Страница создана 14.04.2012
http://primanota.ru/jimmy-buffett/jolly-mon-sing-chords.htm
Привет, Гость.
Предлагаем пройти революционный курс по гитаре.
Подарок от PrimaNota.Ru, забирай!