PrimaNota.ru - самый крупный в мире бесплатный архив песенных текстов, аккордов, табулатур и нот


Jimmy Buffett - Jamaica Mistaica - текст песни, таба, видео

Регистрация Запомнить меня
Войти через:  Facebook Google Twitter Vk Yandex Mail.ru

Jimmy Buffett - Jamaica Mistaica - текст песни, таба, видео

Печатать
Просмотров: 49
-------------------------------------------------------------------------------
                             SONG NAME - Band Name
-------------------------------------------------------------------------------
Tabbed by: Michael Henderson
E-mail: 

This is my first time tabbing anything out as well as my first time learning a solo by ear. Therefore it's
more than likely that I've made a mistake or two. Please don't hesitate to comment or email me if you find
something that isn't quite right! Other than that, enjoy this spectacular guitar solo! 

Tuning: Standard

e|---------------------------------------------------------------------------|
B|-0-2-3-3-3-3-5-7-5----10-8-------------------------------------------------|
G|-0-2-4-4-4-4-6-7-6----11-9-------------------------------------------------|
D|---------------------------------------------------------------------------|
A|---------------------------------------------------------------------------|
E|---------------------------------------------------------------------------|

e|-10-9------------------------------12-14-----------------------------------------------------|
B|------12-10-12---------------------------15--12h14----12-------------------------------------|
G|------------------11\9-----------------------------------14-9h11-9h11-9h11-------------------|
D|-----------------------12-9------------------------------------------------12-11-12----------|
A|---------------------------------------------------------------------------------------9-7-9-|
E|---------------------------------------------------------------------------------------------|

e|-------------15-14-12--------------12-14----------14-12----------12--------------------------|
B|-------12-15--------------15-14-15----------14-15----------12-14---15-----12-15-14-15-12-----|
G|-12-14------------------------------------------------------------------14-------------------|
D|---------------------------------------------------------------------------------------------|
A|---------------------------------------------------------------------------------------------|
E|---------------------------------------------------------------------------------------------|

e|-------------------------------------------------------------------------------------------------------|
B|-15p14-12----17b18-17-15----17b18-17-15----17b18-17-15----17b18-17-15---------15----17----15--------19-|
G|----------------------------------------------------------------------------16----18----------18-16----|
D|-------------------------------------------------------------------------------------------------------|
A|-------------------------------------------------------------------------------------------------------|
E|-------------------------------------------------------------------------------------------------------|



************************************

| /   slide up
| \   slide down
| h   hammer-on
| p   pull-off
| ~   vibrato
| +   harmonic
| x   Mute note
| b   Bend
| pb  Pre-bend
| br  Bend release
| pbr Pre-bend release
| brb Bend release bend

************************************
Добавлено: 11.06.2016
Другие материалы по этой песне:
  • Аккорды и текст

Страница создана 23.03.2012
http://primanota.ru/jimmy-buffett/jamaica-mistaica-chords.htm
Привет, Гость.
Предлагаем пройти революционный курс по гитаре.
Подарок от PrimaNota.Ru, забирай!