PrimaNota.ru - самый крупный в мире бесплатный архив песенных текстов, аккордов, табулатур и нот


Jimmy Buffett - Escape - текст песни, бас-таба, видео

Регистрация Запомнить меня
Войти через:  Facebook Google Twitter Vk Yandex Mail.ru

Jimmy Buffett - Escape - текст песни, бас-таба, видео

Печатать
Просмотров: 155
Jimmy Buffett
Escape (the pina colada song)
ben_fico@yahoo.com


g|-------------------------|
d|.-----------------------.|
a|.------------3-7~-5-3---.|
e|-1-5~-3-1--3~---------0~-|

except for transitions, they go like this

g|---------------------|
d|---------------------|
a|-------------3-7~-5-3|
e|1-5~-3-1--3~---------|



this file is all my own work.

__________________________________
     
Добавлено: 16.10.2013
Другие материалы по этой песне:
  • Аккорды и текст

Страница создана 25.04.2012
http://primanota.ru/jimmy-buffett/escape-chords.htm
Привет, Гость.
Предлагаем пройти революционный курс по гитаре.
Подарок от PrimaNota.Ru, забирай!