PrimaNota.ru - самый крупный в мире бесплатный архив песенных текстов, аккордов, табулатур и нот


Jimmy Bondoc - Forevermore - таба, видео

Регистрация Запомнить меня
Войти через:  Facebook Google Twitter Vk Yandex Mail.ru

Jimmy Bondoc - Forevermore - таба, видео

Печатать
Просмотров: 118
Title: Forevermore

Artist: Jimmy Bondoc

Tabbed by: VALERA CHARLIE EDSEL



You Were Just a dream   that   I    once   knew        I never
  E           G#m7          A9
--------0-----------0----------------0-------------------------|
-----------0-----------0-------------0-------------------------|
--1--1--------4-------------------2----------------------------|
--2--------------4-------------2-------------------------------|
----------------------------0----------------------------------|
--0-----------4------------------------------------------------|

   thought   I would  be  right for you    I just can't
  E           G#m7         A              F#m7
--------0-----------0-----------0-----0------------------------|
-----------0-----------0---1/2-----0------2----2---------------|
--1-----------4---------------------------2----2---------------|
--2--2--------4--4---------------------------------------------|
-----------------------------0-----------------2---------------|
--0-----------4--------------------4------2--------------------|

 compare  you with   anything   in this world   You're ...
  E7                       A9                     G#m7 C#m7 Fm7 Am/B
--------0----------------------------0-----------------------------|
---------------3-----3---------------0------0-----7----5----2---3--|
-----2----------------------------2------2--------4----4----2---1--|
----------2/4-----4------------2------------------4---------2------|
------------------------2---0--------------------------4--------2--|
--0-----------------------------------------------4---------2------|



VERSES:
  There are times     when  i just  want to look  at your face     with
  E        B(/D#)        C#m7        E(/B)        A9
-----------------------------------------------0------------0----|
--------0-----------4----5--------5---------0---------------0----|
-----1-----------4-------------4---------1---------------2-------|
--------------4-------------6-------------------------2----------|
-----------6-------------4------------2------------0-------------|
--0--------------------------------------------------------------|

the stars in the night
 F#m7   Bsus4  B
-----------------------|
--------5-----4--------|
--2--------------------|
--2--------4-----------|
--------2--------2--4--|
--2--------------------|

   There are times   when i just want  to feel your embrace
  E        B(/D#)       C#m7        E(/B)         A9
----------------------------------------------0-------------0----|
--------0-----------7---5--------5---------0----------------0----|
--1--2-----------4------------4---------1----------------2-------|
--2-----------4------------6--------------------------2----------|
-----------6------------4------------2-------------0-------------|
--0--------------------------------------------------------------|

In the cold night...
  F#m7      Bsus4 B
------------------------------|
--------5---5-----4-----------|
------------------------------|
-----2---------4-----4/6------|
------------2-----5-----------|
--2---------------------------|

PRE-CHORUS:

             I just can't...       mine now..                 You were just
  C#m7           F#sus4    F#       B              A   G#m7   B7
--0--------0--------------------- -------------7------ ----- --7----|
--0-----0------------------------ -----------------5-- --7-- --7----|
-----1------------------4---3---- --7/8--------8---6-- --4-- --8----|
---------------------2------2---- ----------9--------- ----- --7----|
--------------------------------- -------9------------ ----- --9----|
--4---------------2-------------- --6/7------------5-- --4-- --7----|

a dream   that   I    once   knew               I never
  E           G#m7          A9
--------0-----------0----------------0-------------------------|
-----------0-----------0-------------0-------------------------|
--1--1--------4-------------------2----------------------------|
--2--------------4-------------2-------------------------------|
----------------------------0----------------------------------|
--0-----------4------------------------------------------------|

   thought   I would  be  right for you    I just can't
  E           G#m7         A              F#m7
--------0-----------0-----------0-----0------------------------|
-----------0-----------0---1/2-----0------2----2---------------|
--1-----------4---------------------------2----2---------------|
--2--2--------4--4---------------------------------------------|
-----------------------------0-----------------2---------------|
--0-----------4--------------------4------2--------------------|

 compare  you with   anything   in this world   You're ...
  E7                       A9                     G#m7 C#m7 Fm7 Am/B
--------0----------------------------0-----------------------------|
---------------3-----3---------------0------0-----7----5----2---3--|
-----2----------------------------2------2--------4----4----2---1--|
----------2/4-----4------------2------------------4---------2------|
------------------------2---0--------------------------4--------2--|
--0-----------------------------------------------4---------2------|

INTERLUDE:

 E
-----------0-----------0---------------0-------------------|
--------0-----0-----------0---------0----------------------|
-----1-----------0---------------1--------1h2--4-----------|
--------------------1--------------------------------------|
-----------------------------------------------------------|
--0---------------------------0----------------------------|
(Do Chords pattern)




Добавлено: 21.05.2012
Другие материалы по этой песне:
  • Аккорды и текст

Страница создана 21.05.2012
http://primanota.ru/jimmy-bondoc/forevermore-chords.htm
Привет, Гость.
Предлагаем пройти революционный курс по гитаре.
Подарок от PrimaNota.Ru, забирай!