PrimaNota.ru - самый крупный в мире бесплатный архив песенных текстов, аккордов, табулатур и нот


Jimmies Chicken Shack - Trash - текст песни, таба, видео

Регистрация Запомнить меня
Войти через:  Facebook Google Twitter Vk Yandex Mail.ru

Jimmies Chicken Shack - Trash - текст песни, таба, видео

Печатать
Просмотров: 133
----------------------------------------------------------------------------
                         Trash - Jimmie's Chicken Shack
----------------------------------------------------------------------------
Tabbed by: adslam3

Tuning: Standard

I'm not sure if Jimmie plays the whole song in power chords, I think he
might, but I wrote this in barred chords but you can play it how you
think sounds best.


This is one of those song that I remembered from being a kid ~ enjoy! 

INTRO
e|-------------------------------------|
B|-------------------------------------|
G|-14-14-x-x-14-14-x-x-14-14-x-x-14-14-|
D|--x--x-x-x--x--x-x-x--x--x-x-x--x--x-|
A|-12-12-x-x-12-12-x-x-12-12-x-x-12-12-|
E|-------------------------------------|

VERSE - Played Twice
e|-5----------4----------2----------0----------|
B|-5----------5----------2----------0----------|
G|-6----------6----------2----------1----------|
D|-7--8 times-6--8 times-4--8 times-2--8 times-|
A|-7----------4----------4----------2----------|
E|-5---------------------2----------0----------|

PRECHORUS - Played Twice
e|---------------------------------------------|
B|---------------------------------------------|
G|-7----------4--------------------------------|
D|-7--8 times-4--8 times-4--8 times-2--8 times-|
A|-5----------2----------4----------2----------|
E|-----------------------2----------0----------|

  Into chorus     CHORUS - Played 6 times
e|-----------|-5-5-x-x-4-4-x-x-2-2-x-x-0-0-|
B|-----------|-5-5-x-x-5-5-x-x-2-2-x-x-0-0-|
G|-----------|-6-6-x-x-6-6-x-x-2-2-x-x-1-1-|
D|-2---------|-7-7-x-x-6-6-x-x-4-4-x-x-2-2-|
A|-2-8 times-|-7-7-x-x-4-4-x-x-4-4-x-x-2-2-|
E|-0---------|-5-5-x-x-----x-x-2-2-x-x-0-0-|

Repeat VERSE, PRECHORUS then:


  Into chorus     CHORUS - Played FOUR times
e|-----------|-5-5-x-x-4-4-x-x-2-2-x-x-0-0-|
B|-----------|-5-5-x-x-5-5-x-x-2-2-x-x-0-0-|
G|-----------|-6-6-x-x-6-6-x-x-2-2-x-x-1-1-|
D|-2---------|-7-7-x-x-6-6-x-x-4-4-x-x-2-2-|
A|-2-8 times-|-7-7-x-x-4-4-x-x-4-4-x-x-2-2-|
E|-0---------|-5-5-x-x-----x-x-2-2-x-x-0-0-|

BRIDGE - at 1:46
e|---------------------------x-x-x-x-----x-x-x-x-----x-x-x-x-----x-x-x-x-|
B|---------------------------x-x-x-x-----x-x-x-x-----x-x-x-x-----x-x-x-x-|
G|---------------------------x-x-x-x-----x-x-x-x-----x-x-x-x-----x-x-x-x-|
D|-5----------2----------4-4-x-x-x-x-4-4-x-x-x-x-4-4-x-x-x-x-4-4-x-x-x-x-|
A|-5-16 times-2-16 times-4-4-x-x-x-x-4-4-x-x-x-x-4-4-x-x-x-x-4-4-x-x-x-x-|
E|-3----------0----------2-2-x-x-x-x-2-2-x-x-x-x-2-2-x-x-x-x-2-2-x-x-x-x-|

e|------------------------------------|
B|------------------------------------|
G|-------------4----------7-----------|
D|-2-----------4--8 times-7--24 times-|
A|-2--16 times-2----------5-----------|
E|-0----------------------------------|

ENDING
 REpeat until end.              End on A.
e|-5-5-x-x-4-4-x-x-2-2-x-x-0-0-|-5~~|
B|-5-5-x-x-5-5-x-x-2-2-x-x-0-0-|-5~~|
G|-6-6-x-x-6-6-x-x-2-2-x-x-1-1-|-6~~|
D|-7-7-x-x-6-6-x-x-4-4-x-x-2-2-|-7~~|
A|-7-7-x-x-4-4-x-x-4-4-x-x-2-2-|-7~~|
E|-5-5-x-x-----x-x-2-2-x-x-0-0-|-5~~|
Добавлено: 09.06.2012
Другие материалы по этой песне:
  • Аккорды и текст

Страница создана 09.06.2012
http://primanota.ru/jimmies-chicken-shack/trash-chords.htm
Привет, Гость.
Предлагаем пройти революционный курс по гитаре.
Подарок от PrimaNota.Ru, забирай!