PrimaNota.ru - самый крупный в мире бесплатный архив песенных текстов, аккордов, табулатур и нот


Jimmies Chicken Shack - Milk - текст песни, таба, бас-таба, видео

Регистрация Запомнить меня
Войти через:  Facebook Google Twitter Vk Yandex Mail.ru

Jimmies Chicken Shack - Milk - текст песни, таба, бас-таба, видео

Печатать
Просмотров: 155
Sent:   Tuesday, December 23, 1997 9:44 PM

Here is my revised version of "Milk" by Jimmies Chicken Shack.
I fixed the spacing on the text and the tab is diiferent because
I fixed my gitfiddle.  I'll try and post some more jcs in the future.
By the way, this song can be found on three albums.  "2 for 1 
special", "Giving Something Back", and their national debut,
"Pushing the Salmanillia Envelope" The albums rock, the band rocks,
their live shows rock, so give them the props they deserve.
Piece.
Dan

                     Milk

Intro Guitar 1:
--------------------------------------------------------------------R
--------------------------------------------------------------------E
--------------------------------------------------------------------P
--4--4---x--x--x--x---4--4---x--x--x--x---4/7-----------------------E
--x--x---x--x--x--x---x--x---x--x--x--x---x/x-----------------------A
--2--2---x--x--x--x---2--2---x--x--x--x---2/5-----------------------T

Intro Guitar 2:
--------5--7--8b----8^7^5-let-ring---------5--7--8b----8--8^7^5------
---5^7--------------------------------5^7----------------------------
---------------------------------------------------------------------
---------------------------------------------------------------------
---------------------------------------------------------------------
---------------------------------------------------------------------

Part 1
--------------------------------------------------------------------R
--------------------------------------------------------------------E
--------------------------------------------------------------------P
----4--4-----4--4-----4/7-------------------------------------------E
----x--x-----x--x-----x/x-------------------------------------------A
----2--2-----2--2-----2/5-------------------------------------------T

Part 2 (same as part 1 just played faster and more distorted)
--------------------------------------------------------------------R
--------------------------------------------------------------------E
--------------------------------------------------------------------P
----4--4--4--4/7----------------------------------------------------E
----x--x--x--x/x----------------------------------------------------A
----2--2--2--2/5----------------------------------------------------T

Part 3
--------------------------------------------------------------------R
--------------------------------------------------------------------E
--------------------------------------------------------------------P
---------------4--3--2----------------------------------------------E
------4--3--2-----------4--3--2-------------------------------------A
---2-----------------------------4--3--2----------------------------T

Part 4
--------------------------------R------------------------------------
--------------------------------E------------------------------------
--------------------------------P------------------------------------
----------7---------------7-----E------4--4--4--4---7----------------
-----7-9----9---7-9--7-9----9---A------4--4--4--4---7----------------
--------------------------------T------2--2--2--2---5----------------

Song

(INTRO GUTIAR 1 X4  GUITAR 2 COMES IN SECOND TIME THROUGH)

(PART 1 X8)

milk them chickens
and pluck them cows
we're the ones
that are gonna fuck you now
wandering with no purpose
things we do well i don't know
we'll go all the way down to mexico
join up with the circus

(PART 2 X4)

and no prophet today
words could sound so sweet
like the beat of the souls
in the drums of our feet
no fear i will rise today

(PART 1 X4)

who do we think we are
who do we think we are
who do we think we are
who do we think we are

(PART 3 X4)

and what's left to save
well it's time that we will
give her back what she gave
i'm not talking to myself
i'm just the only
one who's listening

(PART 2 X8)

mine doesn't matter
think of all that we could do
if we could just join together
one of these days
we're gonna break through
wise never looked so strange
life is something
that will soon fade away
and if anything is right today
it's that we're hypnotized man

(PART 1 X4)

who do we think we are
yeah who do we think we are
who do we think we are
who do we think we are

(INTRO PART OF GUITART ONE THEN PAUSE)

and no prophet's words
would ever sound as sweet
as the beat of the souls
in the drums of our feet
no fear we will rise today
yeah no prophet's words
would ever sound as sweet
as the beat of the souls
in the drums of our feet
no fear we will rise today

but it's politics
and i'm no politican

(PART 4 X2)

yeah it's just politics, polytricks,
polydicks, politics
and i'm no politican

(PART 4 X2)

(PART 2 X4)

yeah but i've got the attitude
attitude it ain't nothing but
a bunch of head fattitude
talking 'bout my attitude    attitude
it ain't nothing but a bunch of head fat

(PART 1 X4)

who do i think i am
yeah who do you think you are
and who do we think you are
and who do you think we are

chicken

(PART 3 X4)

and what's left to say
we'll it's time that we will
give her back what she gave
i'm not talking to myself
i'm just the only one who's listening

(PART 2 X8)

mind over matter
think of all that we could do
if we could just join together

one of these days
we're gonna break through
wise never looked so strange
life is something
that will soon fade away
and if anything is right today
it's that we're hypnotized man
who do we think we are

(PART 3 X4)

who do we think we are
who do we think we are
who do we think we are


Question, Comments, Revisons: mberlin@umd5.umd.edu
TABBED BY DAN BERLIN
Добавлено: 05.03.2012
Другие материалы по этой песне:
  • Аккорды и текст

Страница создана 02.03.2012
http://primanota.ru/jimmies-chicken-shack/milk-chords.htm
Привет, Гость.
Предлагаем пройти революционный курс по гитаре.
Подарок от PrimaNota.Ru, забирай!