PrimaNota.ru - самый крупный в мире бесплатный архив песенных текстов, аккордов, табулатур и нот


Jimmies Chicken Shack - High - аккорды и текст, таба, бас-таба, видео

Регистрация Запомнить меня
Войти через:  Facebook Google Twitter Vk Yandex Mail.ru

Jimmies Chicken Shack - High - аккорды и текст, таба, бас-таба, видео

Печатать
Просмотров: 198
High
Jimmies Chicken Shack
		   Jimmie's Chicken Shack
"High"
from "2 for 1 special"

Tabbed by Mike Aston  (mike1@visi.net)


Main Riff
e:--------------
B:--------------
G:--------------   (Play over and over)
D:2--3--3--5--0-
A:2--3--3--5--0-
E:0--1--1--3--0-



e:--------------
B:--------------
G:--------------   (Then this one which you will know when to put in)
D:2--3--3--5--0-
A:2--3--3--5--0-
E:0--1--1--3--0-


Riff Before First Solo
e:----------------------------------------------------
B:----------------------------------------------------
G:----------------------------------------------------
D:--5-5-/-6-6-/-5-5-/-8-8-/-5-5-/-6-6-/-5-5-/-3-3-----
A:--5-5-/-6-6-/-5-5-/-8-8-/-5-5-/-6-6-/-5-5-/-3-3-----
E:--3-3-/-4-4-/-3-3-/-6-6-/-3-3-/-4-4-/-3-3-/-1-1-----

SOMEONE TAB THE SOLOS!
I know this first little one starts on the twelth fret, thats
all I can say.

Riff Before Second Solo
e:----------------------------------------------------
B:----------------------------------------------------
G:--7-7-/-8-8-/-7-7-/10-10/-7-7-/-8-8-/-7-7-/-5-5-----
D:--x-x-/-x-x-/-x-x-/-x-x-/-x-x-/-x-x-/-x-x-/-x-x-----
A:--5-5-/-6-6-/-5-5-/-8-8-/-5-5-/-6-6-/-5-5-/-3-3-----
E:----------------------------------------------------


Now this is a nice solo that I don't know if you know this
Please post it on the  and email me!  mike1@visi.net


Dont tell me what I have above is wrong, I watched Jimmie himself play
this and it sounds just like it.

Lyrics:(Close enough)

What mood is that you wear this time
Why do you get high
To change the seat you're in
In time you won't come back again
High

Make light of the weight
Time off from hell I could be in
These are the words you say
What mood is that you wear this time
Why do you get high
To change your seat
And complicate things
High

What does it take to get you high
Whatever it takes to get you high
I don't like you when you're
High     
Добавлено: 04.07.2013
Другие материалы по этой песне:
  • Аккорды и текст

Страница создана 14.03.2012
http://primanota.ru/jimmies-chicken-shack/high-chords.htm
Привет, Гость.
Предлагаем пройти революционный курс по гитаре.
Подарок от PrimaNota.Ru, забирай!