PrimaNota.ru - самый крупный в мире бесплатный архив песенных текстов, аккордов, табулатур и нот


Jimi Hendrix - Isabella - бас-таба, видео

Регистрация Запомнить меня
Войти через:  Facebook Google Twitter Vk Yandex Mail.ru

Jimi Hendrix - Isabella - бас-таба, видео

Печатать
Просмотров: 156
G---------------3-------------------------------------------------------|
D----5-3-5-3-5-----3-5-3-5------------5-3------5-3------5-3-------------|X2
A-----------------------------------5------5--------5--------5----------|
E---------------------------3-------------------------------------------|

G-------------------------------------5-3-----5-3-----5-3-----------------|
D---------------1----------3-------5-------5-------5------5---------------|
A---3-1-3-1-3-----1-3-1-3-------------------------------------------------|
E-------------------------------------------------------------------------|

G---------------3---------------------------------------------------------|
D----5-3-5-3-5-----3-5-3-5------------5-3------5-3------5-3---------------|
A-----------------------------------5------5--------5--------5------------|
E---------------------------3---------------------------------------------|

G-------------------------------------------------------------------------|
D--3-2-3-2-3--3-2-3-2-3--3-2-3-2------2-3-4-5-5---------------------------|
A---------------------------------3---------------------------------------|
E------------------------------------------------0-1-2-3-3----------------|


G---------------3---------------------------------------------------------|
D----5-3-5-3-5-----3-5-3-5------------5-3------5-3------5-3---------------|
A-----------------------------------5------5--------5--------5------------|
E---------------------------3---------------------------------------------|


G-------------------------------------------------------------------------|
D-------3~--5-3-5-3-----------------5-3-5-3-5-3-5-3-----------------------|
A---2-5--------------5--------2-5---------------------5-------------------|
E-3------------------------3----------------------------------------------|

G-------------------------------------------------------------------------|
D-------3~--5-3-5-3-----------------5-3-5-3-5-3-5-3-----------------------|
A---2-5--------------5--------2-5---------------------5-------------------|
E-3------------------------3----------------------------------------------|

G-------3~--5-3-5-3-------------5-3-5-3-5-3-5-3---------------------------|
D---2-5-------------5------2-5---------------------5----------------------|
A-3----------------------3------------------------------------------------|
E-------------------------------------------------------------------------|

G-------------------------------------------------------------------------|
D-------3~--5-3-5-3-----------------5-3-5-3-5-3-5-3-----------------------|
A---2-5--------------5--------2-5---------------------5-------------------|
E-3------------------------3----------------------------------------------|

G-------5~--7-5-7-5----------3~--5-3-5-3----------------------------------|
D---4-7-------------5-----2-5------------5-------3-----3------3~-5-3-5-3--|
A-5---------------------3--------------------2-5---2-5—--2-5------------5-|
E-------------------------------------------3-----------------------------|

G-----------3------------------------------------3------------------------|
D-5-3-5-3-5-----3-5-3-5----------------5-3-5-3-5-----3-5-3-5--------------|
A---------------------------2-3-4-5------------------------------2-3-4-5--|
E-----------------------3-------------------------------------3-----------|

G---------------------------------------------------3---------------------|
D-----------1-------------3----2-3-4-5----5-3-5-3-5---3-5-3-5-------------|
A-3-1-3-1-3------1-3-1-3------------------------------------------2-3-4-5-|
E--------------------------------------------------------------3----------|

G-------------------------------------------------------------------------|
D--3-2-3-2-3--3-2-3-2-3—-3-2-3-2------2-3-4-5-5---------------------------|
A---------------------------------3---------------------------------------|
E-------------------------------------------------0-1-2-3-3---------------|

G------------3------------------------------------------------------------|
D--5-3-5-3-5--------3-5-3-5-----------------------------------------------|
A--------------------------------2-3-4-5----------------------------------|
E-----------------------------3-------------------------------------------|

G-------------------------------------------10----------------------------|
D---------------8-------------10-----------------10-8-10-8----------------|
A--10-8-10-8-10----8-10-8-10------8-10-8-10-----------------10------------|
E-------------------------------------------------------------------------|

Warning, this is my first time tabbing and this is a pretty complicated song, but i'm 
sure it's all good. Enjoy...
Добавлено: 09.03.2012
Другие материалы по этой песне:
  • Аккорды и текст

Страница создана 09.03.2012
http://primanota.ru/jimi-hendrix/isabella-chords.htm
Привет, Гость.
Предлагаем пройти революционный курс по гитаре.
Подарок от PrimaNota.Ru, забирай!