PrimaNota.ru - самый крупный в мире бесплатный архив песенных текстов, аккордов, табулатур и нот


Jimi Hendrix - Firepile - аккорды и текст, таба, видео

Регистрация Запомнить меня
Войти через:  Facebook Google Twitter Vk Yandex Mail.ru

Jimi Hendrix - Firepile - аккорды и текст, таба, видео

Печатать
Просмотров: 170
Firepile
Jimi Hendrix
Subject: h/hendrix_jimi/firepile.crd

[lyrics removed -- see diet-olga policy]



     E        A        B
e|-------|----5---|----7---|
B|-------|----5---|----7---|
G|---1---|----6---|----8---|
D|---2---|----7---|----9---|
A|---2---|----7---|----9---|
E|-------|----5---|----7---|

intro:

E A B A

E
   This is him...
A  B  A  E  A  B  A

E               A   B   A
Call him tied...
E     A      B
A     E
A     B      A
E     A      B     A

         E
Don't give away...
A
B     A
E     A
B     A

E
The sidewalk's...
A     B      A 
E
A     B      A     E     A
B     A      E


e-------------------------------------------------------
b-------------------------------------------------------
g-------------------------------------------------------
d-------------------------------------------------------
a--7---
Добавлено: 17.07.2012
Другие материалы по этой песне:
  • Аккорды и текст

Страница создана 09.03.2012
http://primanota.ru/jimi-hendrix/firepile-chords.htm
Привет, Гость.
Предлагаем пройти революционный курс по гитаре.
Подарок от PrimaNota.Ru, забирай!