PrimaNota.ru - самый крупный в мире бесплатный архив песенных текстов, аккордов, табулатур и нот


Jimi Hendrix - Earth Blues - аккорды и текст, таба, бас-таба, видео

Регистрация Запомнить меня
Войти через:  Facebook Google Twitter Vk Yandex Mail.ru

Jimi Hendrix - Earth Blues - аккорды и текст, таба, бас-таба, видео

Печатать
Просмотров: 253
Авторы музыки: Jimi Hendrix
Авторы текста: Jimi Hendrix
Earth Blues
Jimi Hendrix
  chorus (repeat)        verse (x3)
G|----------------------|------------------------4----|
D|5-4-3-------------3---|--5-------5----5----3-5---5--|
A|------54131-3---35-535|5---5--3-5---5---5-----------|
E|--------------3-------|-----------------------------|

end of verse (possibly)
E|-------------------------|
B|--5---3-3-5--------3-53--|
G|5---5-------3344335-5--5-|
D|-------------------------|

  interlude

   (x4)                       (x4)
G|--------------------------|--------------|
D|----2--2-2-2--------------|---------2----|
A|2-4--------------3--3-3-3-|2----------4--|
E|-------------0-3----------|--3-0--3------|

Use innovations of the chorus for the solo.

  outro
   (x3)                    Add this after that last riff to end
G|------------------------------------------|--------12-3-4-5-7|
D|5-4-33333333(3)2-1------------------------|12-3-4-5----------|
A|------------------5-43-2-11111111(1)2-34-5|------------------|
E|------------------------------------------|------------------|
Добавлено: 22.11.2013
Другие материалы по этой песне:
  • Аккорды и текст

Страница создана 08.03.2012
http://primanota.ru/jimi-hendrix/earth-blues-chords.htm
Привет, Гость.
Предлагаем пройти революционный курс по гитаре.
Подарок от PrimaNota.Ru, забирай!