PrimaNota.ru - самый крупный в мире бесплатный архив песенных текстов, аккордов, табулатур и нот


Jimi Hendrix - Country Blues - таба, видео

Регистрация Запомнить меня
Войти через:  Facebook Google Twitter Vk Yandex Mail.ru

Jimi Hendrix - Country Blues - таба, видео

Печатать
Просмотров: 338
This is just the main part, which is played during the first few minutes of the song.
This doesn't include the beginning part, in which Hendrix is just soloing and stuff like that.
This is just the basic outline, and he adds stuff in there, which is what made him such 
great guitarist.
Just add your own little stuff into this when playing.
(I would play it legatto, or smoothly)

Bb
e----------------------------------------------------------------------------|
B----------------------------------------------------------------------------|
G----------------------------------------------------------------------------|
D---------------------------------------------8------------------------------|
A--------------------------8-------8/10---------------10/11----10—8---8/10—8-|
E--6----x----x---8/10--------------------------------------------------------|2x

Eb
e-----------------------------------------------------------------------|
B-----------------------------------------------------------------------|
G----------------------------------------8------------------------------|
D-----------------------8------8/10------------10/11---10-----8/10—8----|
A---6-x-x----8/10-------------------------------------------------------|
E-----------------------------------------------------------------------|


Bb
e----------------------------------------------------------------------------|
B----------------------------------------------------------------------------|
G----------------------------------------------------------------------------|
D---------------------------------------------8------------------------------|
A--------------------------8-------8/10---------------10/11----10—8---8/10—8-|
E--6----x----x---8/10--------------------------------------------------------|


e----------------------------------------------------|
B----------------------------------------------------|
G----------------------------------------------------|
D-----------------6-6—6-------------6-6—6------------|
A-----8/4—--4-4---4—4-4-----4—4—----4—4—4------------|
E----------------------------------------------------|


e--------------------------------|
B--------------------------------|
G--------------------------------|
D---------5-5-5------------4-4-4-|
A--3—3—---3-3-3-----2--2---2-2-2-|
E--------------------------------|

And then you can repeat and mix it up.
Like, instead of the last 2 parts above, play it like this:

e-----------------------------------------------|
B-----------------------------------------------|
G---------------------6-------------6-----------|
D------------------6---6----------6--6----------|
A-8----8/4—--4-4---4—---4----4—4—-4---4---------|
E-----------------------------------------------|

e---------------------------------|
B---------------------------------|
G----------5--------------4-------|
D--------5--5-----------4--4------|
A--3—3—--3---3---2--2---2---2-----|
E---------------------------------|

Thats the basic parts... Have fun, and Please Rate it.
Tabbed By Dan Anderson (Darkstar25)
Email: Destroy_toymachine@msn.com
Добавлено: 11.03.2012
Другие материалы по этой песне:
  • Аккорды и текст

Страница создана 11.03.2012
http://primanota.ru/jimi-hendrix/country-blues-chords.htm
Привет, Гость.
Предлагаем пройти революционный курс по гитаре.
Подарок от PrimaNota.Ru, забирай!