PrimaNota.ru - самый крупный в мире бесплатный архив песенных текстов, аккордов, табулатур и нот


Jimi Hendrix - Can You See Me - текст песни, таба, бас-таба, видео

Регистрация Запомнить меня
Войти через:  Facebook Google Twitter Vk Yandex Mail.ru

Jimi Hendrix - Can You See Me - текст песни, таба, бас-таба, видео

Печатать
Просмотров: 143
Авторы музыки: Jimi Hendrix
Авторы текста: Jimi Hendrix
----------------------------------------------------------

   JIMI HENDRIX - CAN YOU SEE ME. From ARE YOU EXPERIENCED 
                  album. Released in the UK 12th May 1967.

----------------------------------------------------------

   Tabbed by PJVillanueva







Can you see me begging you on my knees?
Wo yeah
Can you see me, baby?
Baby please don't leave. All right
If you could see me doing that
You can see in the future of a thousand years

Can you hear me 
Cryin' all over town?
Yeah babe
Can you hear me baby 
Crying cause you put me down?
What's with ya
If you can hear me doing that
You can hear a frait train coming from a thousand miles

Ah yeah
Can you hear me 
Singing this song to you?
Ah you better hold up your ears
Can you see me, baby 
Singing this song to you?
Ah, shucks!
If you could hear me sing
You better come home like you supposed to do

Can you see me? 
Hey hey
I don't believe you can see me
Wo yeah
Can you hear me baby? 
I don't believe you can
You can't see me





    Standard tuning


                                                                        



e|-------- -------- -------- --------|-------- -------- -------- --------|
B|-----------------------------------|-----------------------------------|
G|-----------------------------------|-----------------------------------|
D|-----------------------------------|-----------------------------------|
A|-----------------------------------|-----------------------------------|
E|-----------------------------------|---------------------------12-\----|




  F#           A                 E    F#           E
e|2------- 2---5--- -------- ----0---|2---2--- ----0--- ----0--- 0-------|
B|2--------2---5-----------------0---|2---2--------0--------0----0-------|
G|3--------3---6-----------------1---|3---3--------1--------1----1-------|
D|4--------4---7-----------------2---|4---4--------2--------2----2-------|
A|4--------4---7-----------------2---|4---4--------2--------2----2-------|
E|2--------2---5-----------------0---|2---2--------0--------0----0-------|

e|-------- -------- -------- --------|-------- -------- -------- --------|
B|-----------------------------------|-----------------------------------|
G|-------------2-~-------------------|-----------------------------------|
D|4------------------------------2---|4---4----4---2-~-------------------|
A|-----------------------------------|-----------------------------------|
E|-----------------------------------|-----------------------------------|



                                                            xx   xx
 
e|2---2-2- ----5--- -------- 5-------|2---2--- ----0--- -------- --------|
B|2---2-2------5-------------5-------|2---2--------0---------------------|
G|3---3-3------6-------------6-------|3---3--------1---------------------|
D|4---4-4------7-------------7-------|4---4--------2---------------------|
A|4---4-4------7-------------7-------|4---4--------2---------------------|
E|2---2-2------5-------------5-------|2---2--------0---------------------|

e|-------- -------- -------- --------|-------- -------- -------- --------|
B|-----------------------------------|-----------------------------------|
G|-------------2-~-------------------|-----------------------------------|
D|4--------4---------------------2---|4------------2-~-------------------|
A|-----------------------------------|-----------------------------------|
E|-----------------------------------|-----------------------------------|



                                                                xx

e|2------- -------- -------- --------|-------- -------- -------- --------|
B|2----------------------------------|-----------------------------------|
G|3----------------------------------|-----------------------------------|
D|4----------------------------------|-----------------------------------|
A|4----------------------------------|-----------------------------------|
E|2----------------------------------|-----------------------------------|
                                                        Can      you see
e|-------- -------- -------- --------|-------- -------- -------- --------|
B|-----------------------------------|-----------------------------------|
G|---------4---B----6-~--------------|-----------------------------------|
D|4----------------------------------|-----------------------------------|
A|-----------------------------------|-----------------------------------|
E|-----------------------------------|-----------------------------------|



  00:11                                   
  B                    Aadd9 B  Aadd9 B           Aadd9 B
e|-------- -------- -------- --------|-------- -------- -------- --------|
B|4--------4--------4---2----4---2---|4--------4---2----4--------4-------|
G|4--------4--------4---2----4---2---|4--------4---2----4--------4-------|
D|4--------4--------4---2----4---2---|4--------4---2----4--------4-------|
A|2--------2--------2---2----2---2---|2--------2---2----2--------2-------|
E|-----------------------------------|-----------------------------------|
      me                                  begging  you      on       my   
e|-------- -------- -------- --------|-------- -------- -------- --------|
B|-----------------------------------|-----------------------------------|
G|4--------4--------4---2----4---2---|4---2----4---2----4---2----4-------|
D|4--------4--------4---2----4---2---|4---2----4---2----4---2----4-------|
A|-----------------------------------|-----------------------------------|
E|-----------------------------------|-----------------------------------|




  F#           A        F#       E    F#           E
e|2------- 2---5--- ----2--- 2---0---|2---2--- 2---0--- -------- 0-------|
B|2--------2---5--------2----2---0---|2---2----2---0-------------0-------|
G|3--------3---6--------3----3---1---|3---3----3---1-------------1-------|
D|4--------4---7--------4----4---2---|4---4----4---2-------------2-------|
A|4--------4---7--------4----4---2---|4---4----4---2-------------2-------|
E|2--------2---5--------2----2---0---|2---2----2---0-------------0-------|
  knees?                                                    Wo       yeah 
e|-------- -------- -------- --------|-------- -------- -------- --------|
B|-----------------------------------|-----------------------------------|
G|-------------2-~-------------------|-----------------------------------|
D|2B4-~----------------------4---2---|2B4-~--------2-~-------------------|
A|-----------------------------------|-----------------------------------|
E|-----------------------------------|-----------------------------------|




 
e|2-2-2-2- -2--5--- ----0--- 2---0---|2---2-2- 2---0--- -------- 2-------|
B|2-2-2-2---2--5--------0----2---0---|2---2-2--2---0-------------2-------|
G|3-3-3-3---3--6--------1----3---1---|3---3-3--3---1-------------3-------|
D|4-4-4-4---4--7--------2----4---2---|4---4-4--4---2-------------4-------|
A|4-4-4-4---4--7--------2----4---2---|4---4-4--4---2-------------4-------|
E|2-2-2-2---2--5--------0----2---0---|2---2-2--2---0-------------2-------|
                                                            Can  you see 
e|-------- -------- -------- --------|-------- -------- -------- --------|
B|-----------------------------------|-----------------------------------|
G|-------------4B6-~------R--4-------|-------------2-~-------------------|
D|4--------4-------------------------|4----------------------------------|
A|-----------------------------------|-----------------------------------|
E|-----------------------------------|-----------------------------------|




  B
e|-------- -------- -------- --------|-------- -------- -------- --------|
B|4---4----4--------4--------4-------|4--------4--------4--------4-------|
G|4---4----4--------4--------4-------|4--------4--------4--------4-------|
D|4---4----4--------4--------4-------|4--------4--------4--------4-------|
A|2---2----2--------2--------2-------|2--------2--------2--------2-------|
E|-----------------------------------|-----------------------------------|    
      me,  baby?                          Baby,    please   don't    leave
e|-------- -------- -------- --------|-------- -------- -------- --------|
B|-----------------------------------|-----------------------------------|
G|4---4----4--------4---2----4---2---|4---2----4---2----4---2----4-------|
D|4---4----4--------4---2----4---2---|4---2----4---2----4---2----4-------|
A|-----------------------------------|-----------------------------------|
E|-----------------------------------|-----------------------------------|

 


  
e|2------- ----5--- ----5--- 2-------|2---2-2- 2---0--- ----0--- 0-------|
B|2------------5--------5----2-------|2---2-2--2---0--------0----0-------|
G|3------------6--------6----3-------|3---3-3--3---1--------1----1-------|
D|4------------7--------7----4-------|4---4-4--4---2--------2----2-------|
A|4------------7--------7----4-------|4---4-4--4---2--------2----2-------|
E|2------------5--------5----2-------|2---2-2--2---0--------0----0-------|
                                                            All  right
e|-------- -------- -------- --------|-------- -------- -------- --------|
B|-----------------------------------|-----------------------------------|
G|-----------------------------------|-----------------------------------|
D|-------------7-~-----------\-------|9B11R9P7---------------------------|
A|7B9-~------------------------------|---------9---7-~-------------------|
E|-----------------------------------|-----------------------------------|





e|2---2--- ----5--- ----5--- 5-------|2---2-2- 2---0--- ----0--- 0---0---|
B|2---2--------5--------5----5-------|2---2-2--2---0--------0----0---0---|
G|3---3--------6--------6----6-------|3---3-3--3---1--------1----1---1---|
D|4---4--------7--------7----7-------|4---4-4--4---2--------2----2---2---|
A|4---4--------7--------7----7-------|4---4-4--4---2--------2----2---2---|
E|2---2--------5--------5----5-------|2---2-2--2---0--------0----0---0---|
                                                            If   you could
e|-------- -------- -------- --------|-------- -------- -------- --------|
B|-----------------------------------|-----------------------------------|
G|-----------------------------------|-----------------------------------|
D|-------------9--B-11-~-------------|-----------------------------------|
A|9---9------------------------------|9---9--------7-~-------------------|
E|-----------------------------------|-----------------------------------|



                                 xxxxxx
  C#                                  B
e|-------- -------- -------- --------|-------- -------- -------- --------|
B|6---6----6---6----6---6----6-------|4----------------------------------|
G|6---6----6---6----6---6----6-------|4----------------------------------|
D|6---6----6---6----6---6----6-------|4----------------------------------|
A|4---4----4---4----4---4----4-------|2----------------------------------|
E|-----------------------------------|-----------------------------------|
  see me   doing    that you can          see  in  the  future  of   a
e|-------- -------- -------- --------|-------- -------- -------- --------|
B|-----------------------------------|-----------------------------------|
G|-----------------------------------|-----------------------------------|
D|-----------------------------------|-----------------------------------|
A11-------11-------11-------11-------|9----------------------------------|
E|9--------9--------9--------9-------|7----------------------------------|



          xx
 
e|-------- --------|
B|-----------------|
G|-----------------|
D|-----------------|
A|-----------------|
E|-----------------|
  thousand     years
e|-------- --------|
B|-----------------|
G|-----------------|
D|-----------------|
A|-----------------|
E|-----------------|



                                                                     xxxxx
  F#       A        B        A        F#  C#7-9
e|2------- 5------- 7------- 5-------|2------- -------- -------- --------|
B|2--------5--------7--------5-------|2---5----5---5----5---5----5---5---|
G|3--------6--------8--------6-------|3---4----4---4----4---4----4---4---|
D|4--------7--------9--------7-------|4---3----3---3----3---3----3---3---|
A|4--------7--------9--------7-------|4---4----4---4----4---4----4---4---|
E|2--------5--------7--------5-------|2----------------------------------|

e|-------- -------- -------- --------|-------- -------- -------- --------|
B|-----------------------------------|-----------------------------------|
G|-----------------------------------|-----------------------------------|
D|---------7--------9--------7-------|-----------------------------------|
A|7/9--------------------------------|9-\-4----4---4----4---4----4---4---|
E|-----------------------------------|-----------------------------------|



  x                                                             xx
  F#
e|2------- -------- -------- --------|-------- -------- -------- --------|
B|2----------------------------------|-----------------------------------|
G|3----------------------------------|-----------------------------------|
D|4----------------------------------|-----------------------------------|
A|4----------------------------------|-----------------------------------|
E|2----------------------------------|-----------------------------------|
                                                        Can      you hear
e|-------- -------- -------- --------|-------- -------- -------- --------|
B|-----------------------------------|-----------------------------------|
G|---------4---B----6-~--------------|-----------------------------------|
D|4----------------------------------|-----------------------------------|
A|-----------------------------------|-----------------------------------|
E|-----------------------------------|-----------------------------------|



  00:44

e|-------- -------- -------- --------|-------- -------- -------- --------|
B|4--------4--------4---2----4---2---|4---2----4--------4--------4-------|
G|4--------4--------4---2----4---2---|4---2----4--------4--------4-------|
D|4--------4--------4---2----4---2---|4---2----4--------4--------4-------|
A|2--------2--------2---2----2---2---|2---2----2--------2--------2-------|
E|-----------------------------------|-----------------------------------|
      me   yeah                           cryin'   all      over     
e|-------- -------- -------- --------|-------- -------- -------- --------|
B|--------B12-R10--------------------|-----------------------------------|
G|------------------7-~--------------|-----------------------------------|
D|---------------------------9P7-----|-----------------------------------|
A|-------------------------------7---|-----------------------------------|
E|-----------------------------------|-----------------------------------|





e|2------- ----5--- ----5--- 2-------|2---2--- ----0--- ----0--- 0---0---|
B|2------------5--------5----2-------|2---2--------0--------0----0---0---|
G|3------------6--------6----3-------|3---3--------1--------1----1---1---|
D|4------------7--------7----4-------|4---4--------2--------2----2---2---|
A|4------------7--------7----4-------|4---4--------2--------2----2---2---|
E|2------------5--------5----2-------|2---2--------0--------0----0---0---|
  town?                                                     Yeah,    baby
e|-------- -------- -------- --------|-------- -------- -------- --------|
B|-----------------------------------|-----------------------------------|
G|-----------------------------------|-----------------------------------|
D|-------------7-~-------------------|-----------------------------------|
A|9--------------------------9-------|9------------7-~-------------------|
E|-----------------------------------|-----------------------------------|





e|2---2--- ----5--- -------- 2-------|2---2--- ----0--- ----0--- 0-------|
B|2---2--------5-------------2-------|2---2--------0--------0----0-------|
G|3---3--------6-------------3-------|3---3--------1--------1----1-------|
D|4---4--------7-------------4-------|4---4--------2--------2----2-------|
A|4---4--------7-------------4-------|4---4--------2--------2----3-------|
E|2---2--------5-------------2-------|2---2--------0--------0----0-------|
                                                            Can  you hear
e|-------- -------- -------- --------|-------- -------- -------- --------|
B|-----------------------------------|-----------------------------------|
G|-------------9B11-~------R-9-------|-----------------------------------|
D|-----------------------------------|-------------7-~-------------------|
A|9-----9----------------------------|9---9----9-------------------------|
E|-----------------------------------|-----------------------------------|





e|-------- -------- -------- --------|-------- -------- -------- --------|
B|4---4----4--------4--------4---2---|4---2----4---2----4--------4---4---|
G|4---4----4--------4--------4---2---|4---2----4---2----4--------4---4---|
D|4---2----4--------4--------4---2---|4---2----4---2----4--------4---4---|
A|2---2----2--------2--------2---2---|2---2----2---2----2--------2---2---|
E|-----------------------------------|-----------------------------------|
      me,  baby                           crying   cause    you  put me 
e|-------- -------- -------- --------|-------- -------- -------- --------|
B|-----------------------------------|-----------------------------------|
G|-----------------------------------|-----------------------------------|
D|---------------------------9-\-7-~-|-----------------------------------|
A|-----------------------------------|-----------------------------------|
E|----------------------9/11---------|-----------------------------------|





e|2---2-2- 2---5--- ----5--- 2---0---|2---2-2- 2---0--- ----0--- 0-------|
B|2---2-2--2---5--------5----2---0---|2---2-2--2---0--------0----0-------|
G|3---3-3--3---6--------6----3---1---|3---3-3--3---1--------1----1-------|
D|4---4-4--4---7--------7----4---2---|4---4-4--4---2--------2----2-------|
A|4---4-4--4---7--------7----4---2---|4---4-4--4---2--------2----2-------|
E|2---2-2--2---5--------5----2---0---|2---2-2--2---0--------0----0-------|
  down                                                    What's with ya         
e|-------- -------- -------- --------|-------- -------- -------- --------|
B|-----------------------------------|-----------------------------------|
G|-----------------------------------|-----------------------------------|
D|-------------7-~-------------------|-----------------------------------|
A|9------------------------------7---|9------------7-~-------------------|
E|-----------------------------------|-----------------------------------|





e|2---2-2- 2---5--- -------- 2---0---|2---2-2- 2---0--- ----0--- 0---0---|
B|2---2-2--2---5-------------2---0---|2---2-2--2---0--------0----0---0---|
G|3---3-3--3---6-------------3---1---|3---3-3--3---1--------1----1---1---|
D|4---4-4--4---7-------------4---2---|4---4-4--4---2--------2----2---2---|
A|4---4-4--4---7-------------4---2---|4---4-4--4---2--------2----2---2---|
E|2---2-2--2---5-------------2---0---|2---2-2--2---0--------0----0---0---|  
                                                            If   you can 
e|-------- -------- -------- --------|-------- -------- -------- --------|
B|-----------------------------------|-----------------------------------|
G|-----------------------------------|-----------------------------------|
D|9B11R9P7-----9B11-~------R-9-------|-----------------------------------|
A|---------9-------------------------|9---9-9--9---7-~-------------------|
E|-----------------------------------|-----------------------------------|





e|-------- -------- -------- --------|-------- -------- -------- --------|
B|6---6----6---4----6---6----6-------|4----------------------------------|
G|6---6----6---4----6---6----6-------|4----------------------------------|
D|6---6----6---4----6---6----6-------|4----------------------------------|
A|4---4----4---4----4---4----4-------|2----------------------------------|
E|-----------------------------------|-----------------------------------|
  hear me  doing    that you can        hear a frait    coming   from a 
                                                   train
e|-------- -------- -------- --------|-------- -------- -------- --------|
B|-----------------------------------|-----------------------------------|
G|-----------------------------------|-----------------------------------|
D|-----------------------------------|-----------------------------------|
A11--11---11---9---11--11---11-------|9----------------------------------|
E|9---9----9---7----9---9----9-------|7----------------------------------|



          xx
 
e|-------- --------|
B|-----------------|
G|-----------------|
D|-----------------|
A|-----------------|
E|-----------------|
  thousand     miles
e|-------- --------|
B|-----------------|
G|-----------------|
D|-----------------|
A|-----------------|
E|-----------------|





e|2------- 5------- 7------- 5-------|2------- -------- -------- --------|
B|2--------5--------7--------5-------|2---5----5---5----5---5----5---5---|
G|3--------6--------8--------6-------|3---4----4---4----4---4----4---4---|
D|4--------7--------9--------7-------|4---3----3---3----3---3----3---3---|
A|4--------7--------9--------7-------|4---4----4---4----4---4----4---4---|
E|2--------5--------7--------5-------|2----------------------------------|

e|-------- -------- -------- --------|-------- -------- -------- --------|
B|-----------------------------------|-----------------------------------|
G|-----------------------------------|-----------------------------------|
D|---------7--------9--------7-------|-----------------------------------|
A|9----------------------------------|9-\-4----4---4----4---4----4---4---|
E|-----------------------------------|-----------------------------------|



  01:14
  F#5                        F#  F#5           F#  F#5      G5   
e|-------- -------- -------- 2-------|-------- 2------- -------- --------|
B|---------------------------2-------|---------2-------------------------|
G|---------------------------3-------|---------3-------------------------|
D|4---4----4---4----4---4----4---4---|4---4----4---4----4---5----5-------|
A|4---4----4---4----4---4----4---4---|4---4----4---4----4---5----5-------|
E|2---2----2---2----2---2----2---2---|2---2----2---2----2---3----3-------|

e|-------- -------- -------- --------|-------- -------- -------- --------|
B|-----------------------------------|-----------------------------------|
G|------------------9B11-~-----------|-----------------------------------|
D|-----------------------------------|-----------------------------------|
A|-----------------------------------|-----------------------------------|
E|-----------------------------------|-----------------------------------|




          
e|-------- 2------- -------- 2-------|-------- 2------- -------- --------|
B|---------2-----------------2-------|---------2-------------------------|
G|---------3-----------------3-------|---------3-------------------------|
D|4---4----4---4----4---4----4---4---|4---4----4---4----4---5----5---5---|
A|4---4----4---4----4---4----4---4---|4---4----4---4----4---5----5---5---|
E|2---2----2---2----2---2----2---2---|2---2----2---2----2---3----3---3---|

e|-------- -------- -------- --------|-------- -------- -------- --------|
B|-----------------------------------|-----------------------------------|
G|-------------------------------9B11R9---6------------------------------|
D|-----------------------------------|---------9B11-9---7---9-B-11-~-----|
A|-----------------------------------|-----------------------------------|
E|-----------------------------------|-----------------------------------|




    
e|-------- 2------- -------- 2-------|-------- 2------- -------- --------|
B|---------2-----------------2-------|---------2-------------------------|
G|---------3-----------------3-------|---------3-------------------------|
D|4---4----4---4----4---4----4---4---|4---4----4---4----4---5----5---5---|
A|4---4----4---4----4---4----4---4---|4---4----4---4----4---5----5---5---|
E|2---2----2---2----2---2----2---2---|2---2----2---2----2---3----3---3---|
  Oh, yeah
e|-------- -------- -------- --------|------H- 12--H-12 --H-12-- --H-14--|
B|-----------------------------------|----1214---1214---1214--12-1214----|
G|-----------------------------------|-----------------------------------|
D|------------------11R9P7--11B------|-----------------------------------|
A|------------------------9------9---|-----------------------------------|
E|-----------------------------------|-----------------------------------|





e|-------- 2------- -------- 2-------|-------- 2------- -------- --------|
B|---------2-----------------2-------|---------2-------------------------|
G|---------3-----------------3-------|---------3-------------------------|
D|4---4----4---4----4---4----4---4---|4---4----4---4----4---5----5-------|
A|4---4----4---4----4---4----4---4---|4---4----4---4----4---5----5-------|
E|2---2----2---2----2---2----2---2---|2---2----2---2----2---3----3-------|

e|-------- -------- 14------ --------|-B---P-- -------- -------- --------|
B|17B19-~--------------12B14R12P10---12141210--10------------------------|
G|--------------------------------11-|------11-----11P9----9H11--9H11----|
D|-----------------------------------|------------------11---------------|
A|-----------------------------------|-----------------------------------|
E|-----------------------------------|-----------------------------------|         





e|2------- -------- -------- --------|-------- -------- -------- --------|
B|2----------------------------------|-------------------------------/---|
G|3----------------------------------|-------------------------------/---|
D|4----------------------------------|-------------------------------/---|
A|4----------------------------------|-------------------------------/---|
E|2----------------------------------|-----------------------------------|
                                                        Can      you hear
e|-------- -------- -------- --------|-------- -------- -------- --------|
B|-----------------------------------|-----------------------------------|
G|---------4---B----6-~--------------|-----------------------------------|
D|4----------------------------------|-----------------------------------|
A|-----------------------------------|-----------------------------------|
E|-----------------------------------|-----------------------------------|



  01:32                         

e|-------- -------- -------- --------|-------- -------- -------- --------|
B|4--------4--------4--------4---2---|4---2----4--------4---2----4-------|
G|4--------4--------4--------4---2---|4---2----4--------4---2----4-------|
D|4--------4--------4--------4---2---|4---2----4--------4---2----4-------|
A|2--------2--------2--------2---2---|2---2----2--------2---2----2-------|
E|-----------------------------------|-----------------------------------|
      me                                  Singing  this     song     to 
e|-------- -------- -------- --------|-------- -------- -------- --------|
B|----------------------12-----------|-----------------------------------|
G|-------------------/13-----13\11---|-----------------------------------|
D|-----------------------------------|-----------------------------------|
A|-----------------------------------|-----------------------------------|
E|-----------------------------------|-----------------------------------|
        





e|2------- 2---5--- ----2--- 2---0---|2------- 2---0--- -------- 0-------|
B|2--------2---5--------2----2---0---|2--------2---0-------------0-------|
G|3--------3---6--------3----3---1---|3--------3---1-------------1-------|
D|4--------4---7--------4----4---2---|4--------4---2-------------2-------|
A|4--------4---7--------4----4---2---|4--------4---2-------------2-------|
E|2--------2---5--------2----2---0---|2--------2---0-------------0-------|
  you?                                    Ah    you hold up your ears 
                                                   better                
e|-------- -------- -------- --------|-------- -------- -------- --------|
B|-----------------------------------|-----------------------------------|
G|-------------2-~-------------------|-----------------------------------|
D|2B4-~------------------------------|4-~----------2-~-------------------|
A|-----------------------------------|-----------------------------------|
E|-----------------------------------|-----------------------------------|





e|2---2-2- 2--5---- ----5--- 2-------|2---2-2- 2---0--- ----0--- 2-------|
B|2---2-2--2--5---------5----2-------|2---2-2--2---0--------0----2-------|
G|3---3-3--3--6---------6----3-------|3---3-3--3---1--------1----3-------|
D|4---4-4--4--7---------7----4-------|4---4-4--4---2--------2----4-------|
A|4---4-4--4--7---------7----4-------|4---4-4--4---2--------2----4-------|
E|2---2-2--2--5---------5----2-------|2---2-2--2---0--------0----2-------|   
                                                            Can  you hear 
e|-------- -------- -------- --------|-------- -------- -------- --------|
B|-----------------------------------|-----------------------------------|
G|-----------------------------------|-------------9B11-----9-~----------|
D|9B11R9P7-----9B11-~------R-9-------|-----------------------------------|
A|---------9-------------------------|9----------------------------------|
E|-----------------------------------|-----------------------------------|  





e|-------- -------- -------- --------|-------- -------- -------- --------|
B|4--------4--------4---2----4---2---|4---2----4---2----4--------4-------|
G|4--------4--------4---2----4---2---|4---2----4---2----4--------4-------|
D|4--------4--------4---2----4---2---|4---2----4---2----4--------4-------|
A|2--------2--------2---2----2---2---|2---2----2---2----2--------2-------|
E|-----------------------------------|-----------------------------------|
      me,  baby?                          Singing  this     song     to 
e|-------- -------- -------- --------|-------- -------- -------- --------|
B|-----------------------------------|-----------------------------------|
G|-----------------------------------|-----------------------------------|
D|---------------------------9-\-7-~-|-----------------------------------|
A|-----------------------------------|-----------------------------------|
E|----------------------9/11---------|-----------------------------------|





e|2-----2- 2---5--- ----5--- 2-------|2---2-2- 2---0--- ----0--- 0-------|
B|2-----2--2---5--------5----2-------|2---2-2--2---0--------0----0-------|
G|3-----3--3---6--------6----3-------|3---3-3--3---1--------1----1-------|
D|4-----4--4---7--------7----4-------|4---4-4--4---2--------2----2-------|
A|4-----4--4---7--------7----4-------|4---4-4--4---2--------2----2-------|
E|2-----2--2---5--------5----2-------|2---2-2--2---0--------0----0-------|
  you                                                   Ah,      shucks!  
e|-------- -------- -------- --------|-------- -------- -------- --------|
B|-----------------------------------|-----------------------------------|
G|-------------11-~------------------|---------11-\9-~-------------------|
D|---------11------------------------|-----------------------------------|
A|11/13------------------------------|11/13------------------------------|
E|-----------------------------------|-----------------------------------|





e|2---2-2- 2---5--- ----5--- 5-------|2---2-2- 2---0--- ----0--- 0---0---|
B|2---2-2--2---5--------5----5-------|2---2-2--2---0--------0----0---0---|
G|3---3-3--3---6--------6----6-------|3---3-3--3---1--------1----1---1---|
D|4---4-4--4---7--------7----7-------|4---4-4--4---2--------2----2---2---|
A|4---4-4--4---7--------7----7-------|4---4-4--4---2--------2----2---2---|
E|2---2-2--2---5--------5----5-------|2---2-2--2---0--------0----0---0---|
                                                            If   you could
e|-------- -------- -------- --------|-------- -------- -------- --------|
B|-----------------------------------|-----------------------------------|
G|-----------------------------------|9B11R9-----------------------------|
D|-------------7-~-------------------|--------------7-~------------------|
A|7/9--------------------------------|---------9-----------------9-------|
E|-----------------------------------|-----------------------------------|





e|-------- -------- -------- --------|-------- -------- -------- --------|
B|6---6----6---6----6---6----6-------|4----------------------------------|
G|6---6----6---6----6---6----6-------|4----------------------------------|
D|6---6----6---6----6---6----6-------|4----------------------------------|
A|4---4----4---4----4---4----4-------|2----------------------------------|
E|-----------------------------------|-----------------------------------|
  hear me  sing                  You  better   come home    like you  
                                                                  supposed
e|-------- -------- -------- --------|-------- -------- -------- --------|
B|-----------------------------------|-----------------------------------|
G|-----------------------------------|-----------------------------------|
D|-----------------------------------|-----------------------------------|
A11-------11-------11-------11-------|9----------------------------------|
E|9--------9--------9--------9-------|7----------------------------------|



          xx
 
e|-------- --------|
B|-----------------|
G|-----------------|
D|-----------------|
A|-----------------|
E|-----------------|
           to  do
e|-------- --------|
B|-----------------|
G|-----------------|
D|-----------------|
A|-----------------|
E|-----------------|




e|2------- 5------- 7------- 5-------|2------- -------- -------- --------|
B|2--------5--------7--------5-------|2---5----5---5----5---5----5---5---|
G|3--------6--------8--------6-------|3---4----4---4----4---4----4---4---|
D|4--------7--------9--------7-------|4---3----3---3----3---3----3---3---|
A|4--------7--------9--------7-------|4---4----4---4----4---4----4---4---|
E|2--------5--------7--------5-------|2----------------------------------|

e|-------- -------- -------- --------|-------- -------- -------- --------|
B|-----------------------------------|-----------------------------------|
G|-----------------------------------|-----------------------------------|
D|---------7--------9--------7-------|-----------------------------------|
A|7/9--------------------------------|9-\-4----4---4----4---4----4---4---|
E|-----------------------------------|-----------------------------------|     





e|2------- -------- -------- --------|-------- -------- -------- --------|
B|2----------------------------------|-----------------------------------|
G|3----------------------------------|-----------------------------------|
D|4----------------------------------|-----------------------------------|
A|4----------------------------------|-----------------------------------|
E|2----------------------------------|-----------------------------------|
                                                        Can      you see
e|-------- -------- -------- --------|-------- -------- -------- --------|
B|-----------------------------------|-----------------------------------|
G|---------4---B----6-~--------------|-----------------------------------|
D|4----------------------------------|-----------------------------------|
A|-----------------------------------|-----------------------------------|
E|-----------------------------------|-----------------------------------|



  02:05

e|-------- -------- -------- --------|-------- -------- -------- --------|
B|4--------4--------4---2----4---2---|4---2----4---2----4--------4-------|
G|4--------4--------4---2----4---2---|4---2----4---2----4--------4-------|
D|4--------4--------4---2----4---2---|4---2----4---2----4--------4-------|
A|2--------2--------2---2----2---2---|2---2----2---2----2--------2-------|
E|-----------------------------------|-----------------------------------|
      me?                                               Hey,         hey!
e|-------- -------- -------- --------|-------- -------- -------- --------|
B|-----------------------------------|-----------------------------------|
G|-----------------------------------|-----------------------------------|
D|----9----9-----------------9-\-7-~-|---------7--------7B9-~----7-------|
A|-----------------------------------|----9--------9-----------------7---|
E|7---------------------9/11---------|-----------------------------------|          
    




e|2---2-2- 2---5--- ----2--- 2-------|2---2-2- 2---0--- -------- 0-------|
B|2---2-2--2---5--------2----2-------|2---2-2--2---0-------------0-------|
G|3---3-3--3---6--------3----3-------|3---3-3--3---1-------------1-------|
D|4---4-4--4---7--------4----4-------|4---4-4--4---2-------------2-------|
A|4---4-4--4---7--------4----4-------|4---4-4--4---2-------------2-------|
E|2---2-2--2---5--------2----2-------|2---2-2--2---0-------------0-------|
                                                            I    don't
                                                                   believe 
e|-------- -------- -------- --------|-------- -------- -------- --------|
B|-----------------------------------|-----------------------------------|
G|-----------------------------------|9B11-------------------------------|
D|-------------7-~-------------------|-------------7-~-------------------|
A|9---9-9--9-------------------------|-----------------------------------|
E|-----------------------------------|-----------------------------------|





e|-------- -------- -------- --------|-------- -------- -------- --------|
B|4---4----4--------4--------4---2---|4---2----4---2----4--------4-------|
G|4---4----4--------4--------4---2---|4---2----4---2----4--------4-------|
D|4---4----4--------4--------4---2---|4---2----4---2----4--------4-------|
A|2---2----2--------2--------2---2---|2---2----2---2----2--------2-------|
E|-----------------------------------|-----------------------------------|
      you  can see      me                              Wo       yeah 
e|-------- -------- -------- --------|-------- -------- -------- --------|
B|-----------------------------------|-----------------------------------|
G|4---4----4---2----4---2----4---2---|4---2----4---2----4---2----4---2---|
D|4---4----4---2----4---2----4---2---|4---2----4---2----4---2----4---2---|
A|-----------------------------------|-----------------------------------|
E|-----------------------------------|-----------------------------------|
                           




e|2---2-2- 2---5--- ----5--- 2---0---|2---2-2- 2---0--- ----0--- 0-------|
B|2---2-2--2---5--------5----2---0---|2---2-2--2---0--------0----0-------|
G|3---3-3--3---6--------6----3---1---|3---3-3--3---1--------1----1-------|
D|4---4-4--4---7--------7----4---2---|4---4-4--4---2--------2----2-------|
A|4---4-4--4---7--------7----4---2---|4---4-4--4---2--------2----2-------|
E|2---2-2--2---5--------5----2---0---|2---2-2--2---0--------0----0-------|
                                                            Can  you hear
e|-------- -------- -------- --------|-------- -------- -------- --------|
B|-----------------------------------|-------------10-~-----\------------|
G|-----------------------------------|9/11-~-----------------------------|
D|-------------7-~-------------------|-----------------------------------|
A|7/9--------------------------------|-----------------------------------|
E|-----------------------------------|-----------------------------------|





e|-------- -------- -------- --------|-------- -------- -------- --------|
B|4---4----4--------4--------4---2---|4---2----4--------4--------4-------|
G|4---4----4--------4--------4---2---|4---2----4--------4--------4-------|
D|4---4----4--------4--------4---2---|4---2----4--------4--------4-------|
A|2---2----2--------2--------2---2---|2---2----2--------2--------2-------|
E|-----------------------------------|-----------------------------------|
      me,  baby                           I    don't believe you can
e|-------- -------- -------- --------|-------- -------- -------- --------|
B|-----------------------------------|-----------------------------------|
G|4---4----4---2----4---2----4---2---|4---2----4---2----4---2----4---2---|
D|4---4----4---2----4---2----4---2---|4---2----4---2----4---2----4---2---|
A|-----------------------------------|-----------------------------------|
E|-----------------------------------|-----------------------------------|



  x            x                 x x  x            x                   X

e|2-----2- 2---5--- -------- --------|2------- ----0--- -------- --------|
B|2-----2--2---5---------------------|2------------0---------------------|
G|3-----3--3---6---------------------|3------------1---------------------|
D|4-----4--4---7---------------------|4------------2---------------------|
A|4-----4--4---7---------------------|4------------2---------------------|
E|2-----2--2---5---------------------|2------------0---------------------|
                                                                  you 
                                                                    can't
                                                                       see
e|-------- -------- -------- --------|-------- -------- -------- --------|
B|-----------------------------------|-----------------------------------|
G|-----------------------------------|-----------------------------------|
D|-------------7-~-------------------|-----------------------------------|
A|7/9--------------------------------|9------------7-~-------------------|
E|-----------------------------------|-----------------------------------|
 


  x x x X  X X X X  XXXXXXXXXXXXXXXXXXX             XXXXX

e|-------- -------- -------- --------|-------- -------- -------- --------|
B|-----------------------------------|-----------------------------------|
G|-----------------------------------|-----------------------------------|
D|-----------------------------------|-----------------------------------|
A|-----------------------------------|-----------------------------------|
E|-----------------------------------|-----------------------------------|
      me










        B  Bend
        R  Release
        /  Slide up
        \  Slide down
        H  Hammer-on
        P  Pull-off
        ~  Vibrato
        +  Harmonic
        x  Mute note
        .  Play note like a dot in standard notation
        ^  Ties two notes together
        (.  Pause
     



Добавлено: 28.05.2012
Другие материалы по этой песне:

Страница создана 25.02.2012
http://primanota.ru/jimi-hendrix/can-you-see-me-chords.htm
Привет, Гость.
Предлагаем пройти революционный курс по гитаре.
Подарок от PrimaNota.Ru, забирай!