PrimaNota.ru - самый крупный в мире бесплатный архив песенных текстов, аккордов, табулатур и нот


Jimi Hendrix - American Women - таба, видео

Регистрация Запомнить меня
Войти через:  Facebook Google Twitter Vk Yandex Mail.ru

Jimi Hendrix - American Women - таба, видео

Печатать
Просмотров: 204
|--------------|
|--------------|
|--------------|
|---7-99999999-|
|-9-5-77777777-|
|-7------------|
repeat through whole song

with this at 0:10
|-------|---------|----------|-------------|
|-5-7-9-|-9-10-12-|-15-5-7-9-|-17-9-10-15--|
|-------|---------|----------|-------------|
|-------|---------|----------|-------------|
|-------|---------|----------|-------------|
|-------|---------|----------|-------------|  
 repeat above again 0:52

solo: 1:34
 
|---------------------------------------------------------------|
|-7b-7--5-7-5---10b-10b--10-9-10-7-9---11b-12--10-7-9--10s12----|
|---------------------------------------------------------------|
|---------------------------------------------------------------|
|---------------------------------------------------------------|
|---------------------------------------------------------------|

|---------------------------------------------------13-15-15b-15b-|
|-10b-10b-10b-10b--12--10-7-9---15-15-15-15-15--15----------------|
|-----------------------------------------------------------------|
|-----------------------------------------------------------------|
|-----------------------------------------------------------------|
|-----------------------------------------------------------------|

|-15b-13-15-13-------------------------------------------------------|
|--------------15---13h15-13p12p10--10b--10b-10b--10-12-12b-10-12-10-|
|--------------------------------------------------------------------|
|--------------------------------------------------------------------|
|--------------------------------------------------------------------|
|--------------------------------------------------------------------|

|------------|
|--10--15~~--|
|------------|
|------------|
|------------|
|------------|

afer the solo the chords go
|------------|
|------------|
|------------|
|-99999-7-9--|
|-77777-5-7--|
|------------| x4

then back to normal chords till end

3:03
|---------------------------15----------------------------------|
|-12h15-12h15-12~--12h15p12----15h17-17~--12h15p12-15-12h15-12~-|
|---------------------------------------------------------------|
|---------------------------------------------------------------|
|---------------------------------------------------------------|
|---------------------------------------------------------------|

|-----------------------------------------15----------15--|
|-15-5-5~--7b-5~--7b-5~--7b-5~--12-14-15-----12-14-15-----|
|---------------------------------------------------------|
|---------------------------------------------------------|
|---------------------------------------------------------|
|---------------------------------------------------------|

|----------------------15b-12~--19b-17h19-17~--....
|-14b-15h17-12~-12h14--------------------------....
|----------------------------------------------....  fade out 
|----------------------------------------------....
|----------------------------------------------....
|----------------------------------------------....

rate it
Добавлено: 27.08.2013
Другие материалы по этой песне:
  • Аккорды и текст

Страница создана 27.08.2013
http://primanota.ru/jimi-hendrix/american-women-chords.htm
Привет, Гость.
Предлагаем пройти революционный курс по гитаре.
Подарок от PrimaNota.Ru, забирай!