PrimaNota.ru - самый крупный в мире бесплатный архив песенных текстов, аккордов, табулатур и нот


Jim - Why - текст песни, таба, видео

Регистрация Запомнить меня
Войти через:  Facebook Google Twitter Vk Yandex Mail.ru

Jim - Why - текст песни, таба, видео

Печатать
Просмотров: 111
Title: Why ?
Artist: Jim
Music: Jim
Copyright: 2011
Tabber: Jim
Tempo = 125

Jim Lead Guitar Clean And Disto With Delay

     ^                            ^                          
E |----------------------------|----------------------------|
B |----------------------------|----------------------------|
G |----------------------------|----------------------------|
D |--6--------6----------------|--4--------4----------------|
A |--6--------------6----------|--4--------------4----------|
E |--4-----------------4-------|--2-----------------2-------|

  ^                            ^                           
----------------------------|----------------------------||
----------------------------|----------------------------||
----------------------------|----------------------------||
--2--------2----------------|--4--------4----------------||
--2--------------2----------|--4--------------4----------||
--0-----------------0-------|--2-----------------2-------||

                                                         
---------------------------|----------------------------|
---------------------------|----------------------------|
o--------------------------|----------------------------|
o6L----6--6L-6--6L-6-------|--4L----4--4L-4--4L-4-------|
-6L----6--6L-6--6L-6-------|--4L----4--4L-4--4L-4-------|
-4L----4--4L-4--4L-4-------|--2L----2--2L-2--2L-2-------|

                                                           
----------------------------|---------------------------|||
----------------------------|---------------------------|||
----------------------------|--------------------------o|||
--2L----2--2L-2--2L-2-------|--4L----4--4L-4--4L-4-----o|||
--2L----2--2L-2--2L-2-------|--4L----4--4L-4--4L-4------|||
--0L----0--0L-0--0L-0-------|--2L----2--2L-2--2L-2------|||

 ^                            ^                          
---------------------------|----------------------------|
---------------------------|----------------------------|
o--------------------------|----------------------------|
o6--------6----------------|--4--------4----------------|
-6--------------6----------|--4--------------4----------|
-4-----------------4-------|--2-----------------2-------|

  ^                            ^                           
----------------------------|---------------------------|||
----------------------------|---------------------------|||
----------------------------|--------------------------o|||
--2--------2----------------|--4--------4--------------o|||
--2--------------2----------|--4--------------4---------|||
--0-----------------0-------|--2-----------------2------|||

                                                         
---------------------------|----------------------------|
---------------------------|----------------------------|
o--------------------------|----------------------------|
o6L----6--6L-6--6L-6-------|--4L----4--4L-4--4L-4-------|
-6L----6--6L-6--6L-6-------|--4L----4--4L-4--4L-4-------|
-4L----4--4L-4--4L-4-------|--2L----2--2L-2--2L-2-------|

                                                           
----------------------------|---------------------------|||
----------------------------|---------------------------|||
----------------------------|--------------------------o|||
--2L----2--2L-2--2L-2-------|--4L----4--4L-4--4L-4-----o|||
--2L----2--2L-2--2L-2-------|--4L----4--4L-4--4L-4------|||
--0L----0--0L-0--0L-0-------|--2L----2--2L-2--2L-2------|||

 ^                            ^                          
---------------------------|----------------------------|
---------------------------|----------------------------|
o--------------------------|----------------------------|
o6--------6----------------|--4--------4----------------|
-6--------------6----------|--4--------------4----------|
-4-----------------4-------|--2-----------------2-------|

  ^                            ^
----------------------------|---------------------------|||
----------------------------|---------------------------|||
----------------------------|--------------------------o|||
--2--------2----------------|--4--------4--------------o|||
--2--------------2----------|--4--------------4---------|||
--0-----------------0-------|--2-----------------2------|||


---------------------------|----------------------------|
---------------------------|----------------------------|
o--------------------------|----------------------------|
o6L----6--6L-6--6L-6-------|--4L----4--4L-4--4L-4-------|
-6L----6--6L-6--6L-6-------|--4L----4--4L-4--4L-4-------|
-4L----4--4L-4--4L-4-------|--2L----2--2L-2--2L-2-------|


----------------------------|---------------------------|||
----------------------------|---------------------------|||
----------------------------|--------------------------o|||
--2L----2--2L-2--2L-2-------|--4L----4--4L-4--4L-4-----o|||
--2L----2--2L-2--2L-2-------|--4L----4--4L-4--4L-4------|||
--0L----0--0L-0--0L-0-------|--2L----2--2L-2--2L-2------|||


---------------------------|----------------------------|
---------------------------|----------------------------|
o--------------------------|----------------------------|
o6--------6M-6M-6M-6L-6M---|--2--------2M-2M-2M-2L-2M---|
-6--------6M-6M-6M-6L-6M---|--2--------2M-2M-2M-2L-2M---|
-4--------4M-4M-4M-4L-4M---|--0--------0M-0M-0M-0L-0M---|


---------------------------||----------------------------|
---------------------------||----------------------------|
--------------------------o||----------------------------|
--4--------4M-4M-4M-4L-4M-o||----------------------------|
--4--------4M-4M-4M-4L-4M--||--4M-4M-4M-4M-4M-4M-4M-4M---|
--2--------2M-2M-2M-2L-2M--||--2M-2M-2M-2M-2M-2M-2M-2M---|


----------------------------|----------------------------|
----------------------------|--9L----------9-------------|
----------------------------|-----------------11----9----|
--4--4--4--4--4--4--4--4----|----------------------------|
--4--4--4--4--4--4--4--4----|----------------------------|
--2--2--2--2--2--2--2--2----|----------------------------|


----------------------------|----------------------------|
----------------------------|----------------------------|
--11~---------------9--11---|--11s13----11-------9-------|
----------------------------|----------------------------|
----------------------------|----------------------------|
----------------------------|----------------------------|


----------------------------|----------------------------|
--10----12-10-------10------|--9-------------------------|
----------------------------|-----------11-------9-------|
----------------------------|----------------------------|
----------------------------|----------------------------|
----------------------------|----------------------------|


----------------------------|----------------------------|----------------||
----------------------------|----------------------------|--10L------10---||
--8~-------9~-------11------|--11s13----11-------9-------|----------------||
----------------------------|----------------------------|----------------||
----------------------------|----------------------------|----------------||
----------------------------|----------------------------|----------------||


---------------------------|----------------------------|
---------------------------|----------------------------|
o--------------------------|----------------------------|
o6L----6--6L-6--6L-6-------|--4L----4--4L-4--4L-4-------|
-6L----6--6L-6--6L-6-------|--4L----4--4L-4--4L-4-------|
-4L----4--4L-4--4L-4-------|--2L----2--2L-2--2L-2-------|


----------------------------|---------------------------||----------------||
----------------------------|---------------------------||----------------||
----------------------------|--------------------------o||----------------||
--2L----2--2L-2--2L-2-------|--4L----4--4L-4--4L-4-----o||--6--4--6-------||
--2L----2--2L-2--2L-2-------|--4L----4--4L-4--4L-4------||--6--4--6-------||
--0L----0--0L-0--0L-0-------|--2L----2--2L-2--2L-2------||--4--2--4-------||
Добавлено: 31.03.2012
Другие материалы по этой песне:

Страница создана 31.03.2012
http://primanota.ru/jim/why-chords.htm
Привет, Гость.
Предлагаем пройти революционный курс по гитаре.
Подарок от PrimaNota.Ru, забирай!