PrimaNota.ru - самый крупный в мире бесплатный архив песенных текстов, аккордов, табулатур и нот


Jim - Rhythms - таба, видео

Регистрация Запомнить меня
Войти через:  Facebook Google Twitter Vk Yandex Mail.ru

Jim - Rhythms - таба, видео

Печатать
Просмотров: 114
Title: Rhythms
Artist: Jim
Music: Jim
Copyright: 2011
Tabber: Jim
Tempo = 140

Jim Lead Guitar Clean And Disto

     n  V  n  V  n  V  n  V       n  V  n  V  n  V  n  V     
E |----------------------------|----------------------------|
B |----------------------------|----------------------------|
G |--6--6--6--6--6--6--6--6----|----------------------------|
D |--6--6--6--6--6--6--6--6----|--7--7--7--7--7--7--7--7----|
A |--4--4--4--4--4--4--4--4----|--7--7--7--7--7--7--7--7----|
E |----------------------------|--5--5--5--5--5--5--5--5----|

  n  V  n  V  n  V  n  V       n  V  n  V  n  V  n  V       n
----------------------------|---------------------------||-------||
----------------------------|---------------------------||-------||
----------------------------|--------------------------o||-------||
--2--2--2--2--2--2--2--2----|--6--6--6--6--6--6--6--6--o||--6----||
--2--2--2--2--2--2--2--2----|--6--6--6--6--6--6--6--6---||--6----||
--0--0--0--0--0--0--0--0----|--4--4--4--4--4--4--4--4---||--4----||


---------------------------|----------------------------|
---------------------------|----------------------------|
o6--6--6--6--6--6--6--6----|--9--9--9--9--9--9--9--9----|
o--------------------------|----------------------------|
-4--4--4--4--4--4--4--4----|--7--7--7--7--7--7--7--7----|
---------------------------|----------------------------|


----------------------------|---------------------------||----------------||
----------------------------|---------------------------||----------------||
--4--4--4--4--4--4--4--4----|--11-11-11-11-9--9--9--9--o||--11-9--8--4----||
----------------------------|--------------------------o||----------------||
--2--2--2--2--2--2--2--2----|--9--9--9--9--7--7--7--7---||--9--7--6--2----||
----------------------------|---------------------------||----------------||


---------------------------|----------------------------|
---------------------------|----------------------------|
o6M-6M-6M-6M-6M-6M-6M-6M---|----------------------------|
o6M-6M-6M-6M-6M-6M-6M-6M---|--7M-7M-7M-7M-7M-7M-7M-7M---|
-4M-4M-4M-4M-4M-4M-4M-4M---|--7M-7M-7M-7M-7M-7M-7M-7M---|
---------------------------|--5M-5M-5M-5M-5M-5M-5M-5M---|


----------------------------|---------------------------||
----------------------------|---------------------------||
----------------------------|--------------------------o||
--2M-2M-2M-2M-2M-2M-2M-2M---|--6M-6M-6M-6M-6M-6M-6M-6M-o||
--2M-2M-2M-2M-2M-2M-2M-2M---|--6M-6M-6M-6M-6M-6M-6M-6M--||
--0M-0M-0M-0M-0M-0M-0M-0M---|--4M-4M-4M-4M-4M-4M-4M-4M--||


----------------------------||---------------------------|
----------------------------||---------------------------|
----------------------------||o6--6--6--6--6--6--6--6----|
--6--6--6--6--6--6--6--6----||o--------------------------|
--6--6--6--6--6--6--6--6----||-4--4--4--4--4--4--4--4----|
--4--4--4--4--4--4--4--4----||---------------------------|


----------------------------|----------------------------|
----------------------------|----------------------------|
--9--9--9--9--9--9--9--9----|--4--4--4--4--4--4--4--4----|
----------------------------|----------------------------|
--7--7--7--7--7--7--7--7----|--2--2--2--2--2--2--2--2----|
----------------------------|----------------------------|


---------------------------||----------------||---------------------------|
---------------------------||----------------||---------------------------|
--11-11-11-11-9--9--9--9--o||--11-9--8--4----||o6M-6M-6M-6M-6M-6M-6M-6M---|
--------------------------o||----------------||o6M-6M-6M-6M-6M-6M-6M-6M---|
--9--9--9--9--7--7--7--7---||--9--7--6--2----||-4M-4M-4M-4M-4M-4M-4M-4M---|
---------------------------||----------------||---------------------------|


----------------------------|----------------------------|
----------------------------|----------------------------|
----------------------------|----------------------------|
--7M-7M-7M-7M-7M-7M-7M-7M---|--2M-2M-2M-2M-2M-2M-2M-2M---|
--7M-7M-7M-7M-7M-7M-7M-7M---|--2M-2M-2M-2M-2M-2M-2M-2M---|
--5M-5M-5M-5M-5M-5M-5M-5M---|--0M-0M-0M-0M-0M-0M-0M-0M---|


---------------------------||----------------------------||
---------------------------||----------------------------||
--------------------------o||----------------------------||
--6M-6M-6M-6M-6M-6M-6M-6M-o||--6--6--6--6--6--6--6--6----||
--6M-6M-6M-6M-6M-6M-6M-6M--||--6--6--6--6--6--6--6--6----||
--4M-4M-4M-4M-4M-4M-4M-4M--||--4--4--4--4--4--4--4--4----||


---------------------------|----------------------------|
---------------------------|----------------------------|
o6--6--6--6--6--6--6--6----|--9--9--9--9--9--9--9--9----|
o--------------------------|----------------------------|
-4--4--4--4--4--4--4--4----|--7--7--7--7--7--7--7--7----|
---------------------------|----------------------------|


----------------------------|---------------------------||----------------||
----------------------------|---------------------------||----------------||
--4--4--4--4--4--4--4--4----|--11-11-11-11-9--9--9--9--o||--11-9--8--4----||
----------------------------|--------------------------o||----------------||
--2--2--2--2--2--2--2--2----|--9--9--9--9--7--7--7--7---||--9--7--6--2----||
----------------------------|---------------------------||----------------||


------|-------|-------|------|||---------------------------|
------|-------|-------|------|||---------------------------|
o6----|-------|-------|-----o|||o6--6--6--6--6--6--6--6----|
o6----|--7----|--2----|--6--o|||o--------------------------|
-4----|--7----|--2----|--6---|||-4--4--4--4--4--4--4--4----|
------|--5----|--0----|--4---|||---------------------------|


----------------------------|----------------------------|
----------------------------|----------------------------|
--9--9--9--9--9--9--9--9----|--4--4--4--4--4--4--4--4----|
----------------------------|----------------------------|
--7--7--7--7--7--7--7--7----|--2--2--2--2--2--2--2--2----|
----------------------------|----------------------------|


---------------------------||----------------|----------------------------||
---------------------------||----------------|----------------------------||
--11-11-11-11-9--9--9--9--o||--11-9--8--4----|--6-------------------------||
--------------------------o||----------------|--6-------------------------||
--9--9--9--9--7--7--7--7---||--9--7--6--2----|--4-------------------------||
---------------------------||----------------|----------------------------||
Добавлено: 09.06.2012
Другие материалы по этой песне:

Страница создана 09.06.2012
http://primanota.ru/jim/rhythms-chords.htm
Привет, Гость.
Предлагаем пройти революционный курс по гитаре.
Подарок от PrimaNota.Ru, забирай!