PrimaNota.ru - самый крупный в мире бесплатный архив песенных текстов, аккордов, табулатур и нот


Jim - Blister - таба, видео

Регистрация Запомнить меня
Войти через:  Facebook Google Twitter Vk Yandex Mail.ru

Jim - Blister - таба, видео

Печатать
Просмотров: 60
Tuning: Drop D                   Blister


Intro:

e|---------------------------------------------------------------------------|
B|--5-5-5-5-5-5-5-5----------------------------------------------------------|
G|--6-6-6-6-6-6-6-6--7-7-7-7-7-7-7-7--11-11-11-11-11--9--9--9---11--7--------|
d|--7-7-7-7-7-7-7-7--x-x-x-x-x-x-x-x--x--x--x--x--x---x--x--x---x---x--------|
A|--7-7-7-7-7-7-7-7--5-5-5-5-5-5-5-5--10-10-10-10-10--10-10-10--10--5--------|
D|---------------------------------------------------------------------------|


Verse: "Take Advantage of these times you said..."

e|---------------------------------------------------------------------------|
B|---------------------------------------------------------------------------|
G|---------------------------------------------------------------------------|
d|--7-7-7-7-7--0-0-0-0-0-0--5-5-5-5-5-5-5-5-5-5------------------------------|
A|--7-7-7-7-7--0-0-0-0-0-0--5-5-5-5-5-5-5-5-5-5------------------------------|
D|--7-7-7-7-7--0-0-0-0-0-0--5-5-5-5-5-5-5-5-5-5------------------------------| x4


Chorus: "and how long would it take me to walk across..."

e|-----------------------------------------------------------------------------------|
B|-----------------------------------------------------------------------------------|
G|-----------------------------------------------------------5-5-5-5-6-7-6-6-6h7-6---|
d|-----------------------------------------------------------5-5-5-5-5-5-5-5-5---5---|
A|--5555555555555555-44444444-5544-5544-5555-2222-0000-5555--5-5-5-5-5-5-5-5-5---5---|
D|-----------------------------------------------------------5-5-5-5-5-5-5-5-5---5---|


e|---------------------------------------------------------------------------|
B|---------------------------------------------------------------------------|
G|---------------------------------------------------5-5-5-5-6-7-6-6-6h7-6---|
d|---------------------------------------------------5-5-5-5-5-5-5-5-5---5---|
A|--5555555555555555-44444444-5544-5544-55-22-00-55--5-5-5-5-5-5-5-5-5---5---|
D|---------------------------------------------------5-5-5-5-5-5-5-5-5---5---|


Verse: "Is it just a coincidence to see you by yourself..."

e|---------------------------------------------------------------------------|
B|---------------------------------------------------------------------------|
G|---------------------------------------------------------------------------|
d|--7-7-7-7-7--0-0-0-0-0-0--5-5-5-5-5-5-5-5-5-5------------------------------|
A|--7-7-7-7-7--0-0-0-0-0-0--5-5-5-5-5-5-5-5-5-5------------------------------|
D|--7-7-7-7-7--0-0-0-0-0-0--5-5-5-5-5-5-5-5-5-5------------------------------| x5



Chorus: "and how long would it take me to walk across..."


e|---------------------------------------------------------------------------|
B|---------------------------------------------------------------------------|
G|---------------------------------------------------5-5-5-5-6-7-6-6-6h7-6---|
d|---------------------------------------------------5-5-5-5-5-5-5-5-5---5---|
A|--5555555555555555-44444444-5544-5544-55-22-00-55--5-5-5-5-5-5-5-5-5---5---|
D|---------------------------------------------------5-5-5-5-5-5-5-5-5---5---|



e|---------------------------------------------------------------------------|
B|---------------------------------------------------------------------------|
G|---------------------------------------------------5-5-5-5-6-7-6-6-6h7-6---|
d|---------------------------------------------------5-5-5-5-5-5-5-5-5---5---|
A|--5555555555555555-44444444-5544-5544-55-77-99-44--5-5-5-5-5-5-5-5-5---5---|
D|---------------------------------------------------5-5-5-5-5-5-5-5-5---5---|



Bridge: "When the world caves in what'cha gonna..."

e|---------------------------------------------------------------------------|
B|---------------------------------------------------------------------------|
G|---------------------------------------------------------------------------|
d|--9-9-9-9-9-9-9-9--0-0-0-0-0-0-0-0--5-5-5-5-5-5-5-5-5-5-5-5-5-5-5-5--------|
A|--9-9-9-9-9-9-9-9--0-0-0-0-0-0-0-0--5-5-5-5-5-5-5-5-5-5-5-5-5-5-5-5--------|
D|--9-9-9-9-9-9-9-9--0-0-0-0-0-0-0-0--5-5-5-5-5-5-5-5-5-5-5-5-5-5-5-5--------| x4



Chorus: "and how long would it take me to walk across..."


e|----------------------------------------------------------------------------------|
B|----------------------------------------------------------------------------------|
G|------------------------------------------------------5-5-5-5-6-7-6-6-6h7-6-------|
d|------------------------------------------------------5-5-5-5-5-5-5-5-5---5-------|
A|--5555555555555555-44444444-5544-5544-5555-2222-0000--5-5-5-5-5-5-5-5-5---5-------|
D|------------------------------------------------------5-5-5-5-5-5-5-5-5---5-------|



e|-------------------------------------------------------------------------------------|
B|-------------------------------------------------------------------------------------|
G|-------------------------------------------------------------5-5-5-5-6-7-6-6-6h7-6---|
d|-------------------------------------------------------------5-5-5-5-5-5-5-5-5---5---|
A|--5555555555555555-44444444-5544-5544-5555-7777-9999-44--44--5-5-5-5-5-5-5-5-5---5---|
D|-------------------------------------------------------------5-5-5-5-5-5-5-5-5---5---|


Outro: "and how long would it take me to walk across..."


e|--------------------------------------------------------------------------|
B|--------------------------------------------------------------------------|
G|--7777777777777777--7777777777777777--7-7-7-7--9-9-9-9--11-11-11-11-------|
d|--7777777777777777--7777777777777777--x-x-x-x--x-x-x-x--x--x--x--x--------|
A|--5555555555555555--4444444444444444--5-5-5-5--7-7-7-7--9--9--9--9--------|
D|--------------------------------------------------------------------------|


e|-------------------------------------|
B|-------------------------------------|
G|--6-6-6-6----5-5-5-5-6-7-6-6-6h7-6---|
d|--x-x-x-x----5-5-5-5-5-5-5-5-5---5---|
A|--4-4-4-4----5-5-5-5-5-5-5-5-5---5---|
D|-------------5-5-5-5-5-5-5-5-5---5---| x2




                 FIN 

************************************

| /   slide up
| \   slide down
| h   hammer-on
| p   pull-off
| ~   vibrato
| +   harmonic
| x   Mute note
| b   Bend
| pb  Pre-bend
| br  Bend release
| pbr Pre-bend release
| brb Bend release bend

************************************
Добавлено: 23.10.2015
Другие материалы по этой песне:
  • Аккорды и текст

Страница создана 23.10.2015
http://primanota.ru/jim/blister-chords.htm
Привет, Гость.
Предлагаем пройти революционный курс по гитаре.
Подарок от PrimaNota.Ru, забирай!