PrimaNota.ru - самый крупный в мире бесплатный архив песенных текстов, аккордов, табулатур и нот


Jim Johnston - Jack Swagger Patriot - таба, видео

Регистрация Запомнить меня
Войти через:  Facebook Google Twitter Vk Yandex Mail.ru

Jim Johnston - Jack Swagger Patriot - таба, видео

Печатать
Просмотров: 81
-------------------------------------------------------------------------------
                             Jack Swagger Patriot Theme - WWE THEMES
-------------------------------------------------------------------------------
Tabbed by: Jordan Straub
E-mail: j.straub25@hotmail.co.uk

So I was looking around google for any tabs of this awesome and catchy tune to play but found 
that no one has tabbed this so I learned It by ear and tabbed it out so other players can have fun with it.
It's really easy it's just repetitive and then the same riff played higher up the fretboard then
loop From Riff 1 (or alternatively Riffs 5 through 8 could be played by a second guitar, if you have a 
friend you could jam along with.)

Tuning: E Standard (EADGBe)

Opening
e|---------------------------------------------------------------------------|
B|---------------------------------------------------------------------------|
G|---------------------------------------------------------------------------|
D|---------------------------------------------------------------------------|
A|-----3--------------5---------7--------9-----------------------------------|
E|-----1--------------3---------5--------7-----------------------------------|


Riff 1
e|---------------------------------------------------------------------------|
B|----15--17--18--17--15------15--17--15-------------------------------------|
G|------------------------17-------------------------------------------------|
D|---------------------------------------------------------------------------|
A|---------------------------------------------------------------------------|
E|---------------------------------------------------------------------------|

Riff 2
e|---------------------------------------------------------------------------|
B|----15--17--18--17--15------17--15-----------------------------------------|
G|------------------------17---------17--------------------------------------|
D|---------------------------------------------------------------------------|
A|---------------------------------------------------------------------------|
E|---------------------------------------------------------------------------|

Riff 3
e|---------------------------------------------------------------------------|
B|----15--17--18--17--15------15--17--15-------------------------------------|
G|------------------------17-------------------------------------------------|
D|---------------------------------------------------------------------------|
A|---------------------------------------------------------------------------|
E|---------------------------------------------------------------------------|

Riff 4
e|---------------------------------------------------------------------------|
B|----15--17--18--17--15------17--15-----------------------------------------|
G|------------------------17-------------------------------------------------|
D|---------------------------------------------------------------------------|
A|---------------------------------------------------------------------------|
E|---------------------------------------------------------------------------|

Riff 5
e|---------------------------------------------------------------------------|
B|---------------------------------------------------------------------------|
G|---------------------------------------------------------------------------|
D|---------------------------------------------------------------------------|
A|-----------5--7--8--7--5-----5--7--5---------------------------------------|
E|--------------------------7------------------------------------------------|

Riff 6
e|---------------------------------------------------------------------------|
B|---------------------------------------------------------------------------|
G|---------------------------------------------------------------------------|
D|---------------------------------------------------------------------------|
A|-----------5--7--8--7--5-----7--5------------------------------------------|
E|--------------------------7--------7---------------------------------------|

Riff 7
e|---------------------------------------------------------------------------|
B|---------------------------------------------------------------------------|
G|---------------------------------------------------------------------------|
D|---------------------------------------------------------------------------|
A|-----------5--7--8--7--5-----5--7--5---------------------------------------|
E|--------------------------7------------------------------------------------|


Riff 8
e|---------------------------------------------------------------------------|
B|---------------------------------------------------------------------------|
G|---------------------------------------------------------------------------|
D|---------------------------------------------------------------------------|
A|-----------5--7--8--7--5-----7--5------------------------------------------|
E|--------------------------7------------------------------------------------|




************************************

| /   slide up
| \   slide down
| h   hammer-on
| p   pull-off
| ~   vibrato
| +   harmonic
| x   Mute note
| b   Bend
| pb  Pre-bend
| br  Bend release
| pbr Pre-bend release
| brb Bend release bend

************************************
Добавлено: 31.05.2016
Другие материалы по этой песне:
  • Аккорды и текст

Страница создана 31.05.2016
http://primanota.ru/jim-johnston/jack-swagger-patriot-chords.htm
Привет, Гость.
Предлагаем пройти революционный курс по гитаре.
Подарок от PrimaNota.Ru, забирай!