PrimaNota.ru - самый крупный в мире бесплатный архив песенных текстов, аккордов, табулатур и нот


Jim James - Exploding - таба, видео

Регистрация Запомнить меня
Войти через:  Facebook Google Twitter Vk Yandex Mail.ru

Jim James - Exploding - таба, видео

Печатать
Просмотров: 44
-------------------------------------------------------------------------------
                             Exploding - Jim James
-------------------------------------------------------------------------------
Tabbed by: Mark B.
E-mail: markburger2@gmail.com

Tuning: Standard

Capo at 4th fret (tab relative to capo position)

e|----2-----2------2------2-4-2--------2---2-0-----0--------------0-------0----|
B|--------4------4------3-------3--------------2-----4-----4--------2---2---2--|
G|------4------4------3-----------3--2---2-------2-----5-----5--------2--------|
D|-------------------------------------------------------6-----6---------------|
A|-----------------------------------------------------------------------------|
E|-----------------------------------------------------------------------------|

e|-------------------------------------------------------------------------------|
B|----2-----0---2---4--4---------------------------------------------------------|
G|------3--------------4---------------------------------------------------------|
D|--------4---4---4----4---------------------------------------------------------|
A|-------------------------------------------------------------------------------|
E|-------------------------------------------------------------------------------|

The very last D# chord can be strummed as is heard in the piece.

************************************

| /   slide up
| \   slide down
| h   hammer-on
| p   pull-off
| ~   vibrato
| +   harmonic
| x   Mute note
| b   Bend
| pb  Pre-bend
| br  Bend release
| pbr Pre-bend release
| brb Bend release bend

************************************
Добавлено: 26.05.2016
Другие материалы по этой песне:

Страница создана 31.12.2015
http://primanota.ru/jim-james/exploding-chords.htm
Привет, Гость.
Предлагаем пройти революционный курс по гитаре.
Подарок от PrimaNota.Ru, забирай!