PrimaNota.ru - самый крупный в мире бесплатный архив песенных текстов, аккордов, табулатур и нот


Jim Guthrie - And We Got Older - таба, видео

Регистрация Запомнить меня
Войти через:  Facebook Google Twitter Vk Yandex Mail.ru

Jim Guthrie - And We Got Older - таба, видео

Печатать
Просмотров: 160
Авторы музыки: Jim Guthrie

                               And We Got Older                                 


                                                                     Jim Guthrie
Track 1 (Capo 5)



        Capo on 5th fret                                
     PM PM               PM PM PM PM PM PM PM PM PM PM  
     E  S                E  S  E  S  E  S  E  S  E  S   
E||-----1----------------------1--------1--------1-----|
B||----------------------3--------3--------3--------3--|
G||-------------------------2-----------------2--------|
D||--3-------------------------------3-----------------|
A||----------------------------------------------------|
E||----------------------------------------------------|


  PM PM PM PM PM PM PM PM PM PM PM PM                                   
  E  S  E  S  E  S  E  S  E  S  E  S     E  S E  S E  S E  S E  S E  S  
-----1--------1--------1--------1-----|-----1------1-------1------1----|
--------3--------3--------3--------3--|-------3-------3------3-------3-|
-----------2-----------------2--------|----------2--------------2------|
--3-----------------3-----------------|--3--------------3--------------|
--------------------------------------|--------------------------------|
--------------------------------------|--------------------------------|


  E  S E  S E  S E  S E  S E  S    E  S E  S E  S E  S E  S E  S  
-----1------1-------1------1----|-----1------1-------1------1----|
-------3-------3------3-------3-|-------3-------3------3-------3-|
----------2--------------2------|----------2--------------2------|
--3--------------3--------------|--3--------------3--------------|
--------------------------------|--------------------------------|
--------------------------------|--------------------------------|


  E  S E  S E  S E  S E  S E  S    E  S E  S E  S E  S E  S E  S  
-----1------1-------1------1----|-----0------0-------0------0----|
-------3-------3------3-------3-|-------3-------3------3-------3-|
----------2--------------2------|----------3--------------3------|
--3--------------3--------------|--2--------------2--------------|
--------------------------------|--------------------------------|
--------------------------------|--------------------------------|


  E  S E  S E  S E  S E  S E  S      E  S E  S E  S E  S E  S E  S  
-----0------0-------0------0----||------0------0-------0------0----|
-------3-------3------3-------3-||--------3-------3------3-------3-|
----------3--------------3------||*----------2--------------2------|
--2--------------2--------------||*--3--------------3--------------|
--------------------------------||---------------------------------|
--------------------------------||---------------------------------|


  E  S E  S E  S E  S E  S E  S    E  S E  S E  S E  S E  S E  S  
-----0------0-------0------0----|-----0------0-------0------0----|
-------3-------3------3-------3-|-------3-------3------3-------3-|
----------2--------------2------|----------3--------------3------|
--3--------------3--------------|--2--------------2--------------|
--------------------------------|--------------------------------|
--------------------------------|--------------------------------|


  E  S E  S E  S E  S E  S E  S  4x  E  S E  S E  S E  S E  S E  S  
-----0------0-------0------0-----||-----0------0-------0------0----|
-------3-------3------3-------3--||-------3-------3------3-------3-|
----------3--------------3------*||--0-------3------0-------3------|
--2--------------2--------------*||--------------------------------|
---------------------------------||--------------------------------|
---------------------------------||--------------------------------|


  E  S E  S E  S E  S E  S E  S    E  S E  S E  S E  S E  S E  S  
-----0------0-------0------0----|-----0------0-------0------0----|
-------3-------3------3-------3-|-------3-------3------3-------3-|
--0-------3------0-------3------|----------2--------------2------|
--------------------------------|--3--------------3--------------|
--------------------------------|--------------------------------|
--------------------------------|--------------------------------|


  E  S E  S E  S E  S E  S E  S    E  S E  S E  S E  S E  S E  S  
-----0------0-------0------0----|-----0------0-------0------0----|
-------3-------3------3-------3-|-------3-------3------3-------3-|
----------2--------------2------|--0-------3------0-------3------|
--3--------------3--------------|--------------------------------|
--------------------------------|--------------------------------|
--------------------------------|--------------------------------|


  E  S E  S E  S E  S E  S E  S      E  S E  S E  S E  S E  S E  S  
-----0------0-------0------0----||------0------0-------0------0----|
-------3-------3------3-------3-||--------3-------3------3-------3-|
--0-------3------0-------3------||*----------2--------------2------|
--------------------------------||*--3--------------3--------------|
--------------------------------||---------------------------------|
--------------------------------||---------------------------------|


  E  S E  S E  S E  S E  S E  S    E  S E  S E  S E  S E  S E  S  
-----0------0-------0------0----|-----0------0-------0------0----|
-------3-------3------3-------3-|-------5-------5------5-------5-|
----------2--------------2------|----------5--------------5------|
--3--------------3--------------|--5--------------5--------------|
--------------------------------|--------------------------------|
--------------------------------|--------------------------------|


    E  S E  S E  S E  S E  S E  S       E  S E  S E  S E  S E  S E  S  
-------0------0-------0------0------||-----0------0-------0------0----|
---------3-------3------3-----------||-------3-------3------3-------3-|
------------3--------------3-------*||----------2--------------2------|
--5g3--------------3------------2h-*||--3--------------3--------------|
------------------------------------||--------------------------------|
------------------------------------||--------------------------------|


  E  S E  S E  S E  S E  S E  S    E  S E  S E  S E  S E  S E  S  
-----0------0-------0------0----|-----1------1-------1------1----|
-------3-------3------3-------3-|-------3-------3------3-------3-|
----------2--------------2------|----------2--------------2------|
--3--------------3--------------|--3--------------3--------------|
--------------------------------|--------------------------------|
--------------------------------|--------------------------------|


  E  S E  S E  S E  S E  S E  S    E  S E  S E  S E  S E  S E  S  
-----1------1-------1------1----|-----1------1-------1------1----|
-------3-------3------3-------3-|-------3-------3------3-------3-|
----------2--------------2------|----------2--------------2------|
--3--------------3--------------|--3--------------3--------------|
--------------------------------|--------------------------------|
--------------------------------|--------------------------------|


  E  S E  S E  S E  S E  S E  S    E  S E  S E  S E  S E  S E  S  
-----1------1-------1------1----|-----0------0-------0------0----|
-------3-------3------3-------3-|-------3-------3------3-------3-|
----------2--------------2------|----------3--------------3------|
--3--------------3--------------|--2--------------2--------------|
--------------------------------|--------------------------------|
--------------------------------|--------------------------------|


  E  S E  S E  S E  S E  S E  S      E  S E  S E  S E  S E  S E  S  
-----0------0-------0------0----||------0------0-------0------0----|
-------3-------3------3-------3-||--------3-------3------3-------3-|
----------3--------------3------||*----------2--------------2------|
--2--------------2--------------||*--3--------------3--------------|
--------------------------------||---------------------------------|
--------------------------------||---------------------------------|


  E  S E  S E  S E  S E  S E  S    E  S E  S E  S E  S E  S E  S  
-----0------0-------0------0----|-----0------0-------0------0----|
-------3-------3------3-------3-|-------3-------3------3-------3-|
----------2--------------2------|----------3--------------3------|
--3--------------3--------------|--2--------------2--------------|
--------------------------------|--------------------------------|
--------------------------------|--------------------------------|


  E  S E  S E  S E  S E  S E  S      E  S E  S E  S E  S E  S E  S  
-----0------0-------0------0-----||-----0------0-------0------0----|
-------3-------3------3-------3--||-------3-------3------3-------3-|
----------3--------------3------*||--0-------3------0-------3------|
--2--------------2--------------*||--------------------------------|
---------------------------------||--------------------------------|
---------------------------------||--------------------------------|


  E  S E  S E  S E  S E  S E  S    E  S E  S E  S E  S E  S E  S  
-----0------0-------0------0----|-----0------0-------0------0----|
-------3-------3------3-------3-|-------3-------3------3-------3-|
--0-------3------0-------3------|----------2--------------2------|
--------------------------------|--3--------------3--------------|
--------------------------------|--------------------------------|
--------------------------------|--------------------------------|


  E  S E  S E  S E  S E  S E  S    E  S E  S E  S E  S E  S E  S  
-----0------0-------0------0----|-----0------0-------0------0----|
-------3-------3------3-------3-|-------3-------3------3-------3-|
----------2--------------2------|--0-------3------0-------3------|
--3--------------3--------------|--------------------------------|
--------------------------------|--------------------------------|
--------------------------------|--------------------------------|


  E  S E  S E  S E  S E  S E  S    E  S E  S E  S E  S E  S E  S  
-----0------0-------0------0----|-----0------0-------0------0----|
-------3-------3------3-------3-|-------3-------3------3-------3-|
--0-------3------0-------3------|----------2--------------2------|
--------------------------------|--3--------------3--------------|
--------------------------------|--------------------------------|
--------------------------------|--------------------------------|


  E  S E  S E  S E  S E  S E  S    E  S E  S E  S E  S E  S E  S  
-----0------0-------0------0----|-----0------0-------0------0----|
-------3-------3------3-------3-|-------5-------5------5-------5-|
----------2--------------2------|----------5--------------5------|
--3--------------3--------------|--5--------------5--------------|
--------------------------------|--------------------------------|
--------------------------------|--------------------------------|


    E  S E  S E  S E  S E  S E  S     E  S E  S E  S E  S E  S E  S  
-------0------0-------0------0-----|-----0------0-------0------0----|
---------3-------3------3----------|-------3-------3------3-------3-|
------------3--------------3-------|----------2--------------2------|
--5g3--------------3------------2h-|--3--------------3--------------|
-----------------------------------|--------------------------------|
-----------------------------------|--------------------------------|


  E  S E  S E  S E  S E  S E  S    E  S E  S E  S E  S E  S E  S  
-----0------0-------0------0----|-----0------0-------0------0----|
-------3-------3------3-------3-|-------5-------5------5-------5-|
----------2--------------2------|----------5--------------5------|
--3--------------3--------------|--5--------------5--------------|
--------------------------------|--------------------------------|
--------------------------------|--------------------------------|


    E  S E  S E  S E  S E  S E  S     E  S E  S E  S E  S E  S E  S  
-------0------0-------0------0-----|-----0------0-------0------0----|
---------3-------3------3----------|-------3-------3------3-------3-|
------------3--------------3-------|----------2--------------2------|
--5g3--------------3------------2h-|--3--------------3--------------|
-----------------------------------|--------------------------------|
-----------------------------------|--------------------------------|


  W                E       W                E   4x
----------------------||------------------------||
----------------------||------------------------||
----------------------||*----------------------*||
--3----------------L--||*----------------------*||
----------------------||------------------------||
----------------------||------------------------||


  E  S E  S E  S E  S E  S E  S    E  S E  S E  S E  S E  S E  S  
-----0------0-------0------0----|-----0------0-------0------0----|
-------3-------3------3-------3-|-------3-------3------3-------3-|
----------3--------------3------|----------3--------------3------|
--2--------------2--------------|--2--------------2--------------|
--------------------------------|--------------------------------|
--------------------------------|--------------------------------|


  E  S E  S E  S E  S E  S E  S    E  S E  S E  S E  S E  S E  S  
-----0------0-------0------0----|-----0------0-------0------0----|
-------3-------3------3-------3-|-------3-------3------3-------3-|
----------2--------------2------|----------2--------------2------|
--3--------------3--------------|--3--------------3--------------|
--------------------------------|--------------------------------|
--------------------------------|--------------------------------|


  E  S E  S E  S E  S E  S E  S    E  S E  S E  S E  S E  S E  S  
-----0------0-------0------0----|-----0------0-------0------0----|
-------3-------3------3-------3-|-------3-------3------3-------3-|
----------3--------------3------|----------3--------------3------|
--2--------------2--------------|--2--------------2--------------|
--------------------------------|--------------------------------|
--------------------------------|--------------------------------|


  E  S E  S E  S E  S E  S E  S    E  S E  S E  S E  S E  S E  S  
-----0------0-------0------0----|-----0------0-------0------0----|
-------3-------3------3-------3-|-------3-------3------3-------3-|
----------2--------------2------|----------2--------------2------|
--3--------------3--------------|--3--------------3--------------|
--------------------------------|--------------------------------|
--------------------------------|--------------------------------|


  E  S E  S E  S E  S E  S E  S    E  S E  S E  S E  S E  S E  S  
-----0------0-------0------0----|-----0------0-------0------0----|
-------3-------3------3-------3-|-------3-------3------3-------3-|
----------3--------------3------|----------3--------------3------|
--2--------------2--------------|--2--------------2--------------|
--------------------------------|--------------------------------|
--------------------------------|--------------------------------|


  E  S E  S E  S E  S E  S E  S    E  S E  S E  S E  S E  S E  S  
-----0------0-------0------0----|-----0------0-------0------0----|
-------3-------3------3-------3-|-------3-------3------3-------3-|
----------2--------------2------|----------2--------------2------|
--3--------------3--------------|--3--------------3--------------|
--------------------------------|--------------------------------|
--------------------------------|--------------------------------|


  E  S E  S E  S E  S E  S E  S    E  S E  S E  S E  S E  S E  S  
-----0------0-------0------0----|-----0------0-------0------0----|
-------3-------3------3-------3-|-------3-------3------3-------3-|
----------3--------------3------|----------3--------------3------|
--2--------------2--------------|--2--------------2--------------|
--------------------------------|--------------------------------|
--------------------------------|--------------------------------|


  E  S E  S E  S E  S E  S E  S    E  S E  S E  S E  S E  S E  S  
-----0------0-------0------0----|-----0------0-------0------0----|
-------3-------3------3-------3-|-------3-------3------3-------3-|
----------2--------------2------|----------2--------------2------|
--3--------------3--------------|--3--------------3--------------|
--------------------------------|--------------------------------|
--------------------------------|--------------------------------|


  E  S E  S E  S E  S E  S E  S    E  S E  S E  S E  S E  S E  S  
-----0------0-------0------0----|-----0------0-------0------0----|
-------3-------3------3-------3-|-------3-------3------3-------3-|
--0-------3------0-------3------|--0-------3------0-------3------|
--------------------------------|--------------------------------|
--------------------------------|--------------------------------|
--------------------------------|--------------------------------|


  E  S E  S E  S E  S E  S E  S    E  S E  S E  S E  S E  S E  S  
-----0------0-------0------0----|-----0------0-------0------0----|
-------3-------3------3-------3-|-------3-------3------3-------3-|
----------2--------------2------|----------2--------------2------|
--3--------------3--------------|--3--------------3--------------|
--------------------------------|--------------------------------|
--------------------------------|--------------------------------|


  E  S E  S E  S E  S E  S E  S    E  S E  S E  S E  S E  S E  S  
-----0------0-------0------0----|-----0------0-------0------0----|
-------3-------3------3-------3-|-------3-------3------3-------3-|
--0-------3------0-------3------|--0-------3------0-------3------|
--------------------------------|--------------------------------|
--------------------------------|--------------------------------|
--------------------------------|--------------------------------|


  E  S E  S E  S E  S E  S E  S    E  S E  S E  S E  S E  S E  S  
-----0------0-------0------0----|-----0------0-------0------0----|
-------3-------3------3-------3-|-------3-------3------3-------3-|
----------2--------------2------|----------2--------------2------|
--3--------------3--------------|--3--------------3--------------|
--------------------------------|--------------------------------|
--------------------------------|--------------------------------|


  E  S E  S E  S E  S E  S E  S      E  S E  S E  S E  S E  S E  S   
-----0------0-------0------0----|-------0------0-------0------0-----|
-------5-------5------5-------5-|---------3-------3------3----------|
----------5--------------5------|------------3--------------3-------|
--5--------------5--------------|--5g3--------------3------------2h-|
--------------------------------|-----------------------------------|
--------------------------------|-----------------------------------|


  E  S E  S E  S E  S E  S E  S    E  S E  S E  S E  S E  S E  S  
-----0------0-------0------0----|-----0------0-------0------0----|
-------3-------3------3-------3-|-------3-------3------3-------3-|
----------2--------------2------|----------2--------------2------|
--3--------------3--------------|--3--------------3--------------|
--------------------------------|--------------------------------|
--------------------------------|--------------------------------|


  E  S E  S E  S E  S E  S E  S      E  S E  S E  S E  S E  S E  S   
-----0------0-------0------0----|-------0------0-------0------0-----|
-------5-------5------5-------5-|---------3-------3------3----------|
----------5--------------5------|------------3--------------3-------|
--5--------------5--------------|--5g3--------------3------------2h-|
--------------------------------|-----------------------------------|
--------------------------------|-----------------------------------|


  E  S E  S E  S E  S E  S E  S    E  S E  S E  S E  S E  S E  S  
-----0------0-------0------0----|-----0------0-------0------0----|
-------3-------3------3-------3-|-------3-------3------3-------3-|
----------2--------------2------|----------2--------------2------|
--3--------------3--------------|--3--------------3--------------|
--------------------------------|--------------------------------|
--------------------------------|--------------------------------|


    E  S E  S E  S E  S E  S E  S    E  S E  S E  S E  S E  S E  S  
|------2------2-------2------2----|-----2------2-------2------2----|
|--------3-------3------3-------3-|-------3-------3------3-------3-|
|*----------2--------------2------|----------2--------------2------|
|*--4--------------4--------------|--4--------------4--------------|
|---------------------------------|--------------------------------|
|---------------------------------|--------------------------------|


  E  S E  S E  S E  S E  S E  S    E  S E  S E  S E  S E  S E  S  4x
-----1------1-------1------1----|-----1------1-------1------1-----||
-------3-------3------3-------3-|-------3-------3------3-------3--||
----------2--------------2------|----------2--------------2------*||
--3--------------3--------------|--3--------------3--------------*||
--------------------------------|---------------------------------||
--------------------------------|---------------------------------||


  E  S E  S E  S E  S E  S E  S    E  S E  S E  S E  S E  S E  S  
-----1------1-------1------1----|-----1------0-------1------0----|
-------3-------3------3-------3-|-------3-------3------3-------3-|
----------2--------------2------|----------2--------------2------|
--3--------------3--------------|--3--------------3--------------|
--------------------------------|--------------------------------|
--------------------------------|--------------------------------|


  E  S E  S E  S E  S E  S E  S    E  S E  S E  S E  S E  S E  S  
-----5------5-------5------5----|-----5------5-------3------1----|
-------3-------3------3-------3-|-------3-------3------3-------3-|
----------2--------------2------|----------2--------------2------|
--3--------------3--------------|--3--------------3--------------|
--------------------------------|--------------------------------|
--------------------------------|--------------------------------|


  E  S E  S E  S E  S E  S E  S    E  S E  S E  S E  S E  S E  S   
-----5------6-------6------6----|-----6------6-------3------1----||
-------3-------3------3-------3-|-------3-------3------3-------3-||
----------3--------------3------|----------3--------------3------||
--2--------------2--------------|--2--------------2--------------||
--------------------------------|--------------------------------||
--------------------------------|--------------------------------||




Duration Legend
---------------
W - whole
H - half
Q - quarter
E - 8th
S - 16th
T - 32nd
X - 64th
. - note dotted
|-n-|  - n-tuplets


Tablature Legend
----------------
L - tied note
x - dead note
g - grace note
(n) - ghost note
> - accentuded note
NH - natural harmonic
AH - artificial harmonic
TH - tapped harmonic
SH - semi harmonic
PH - pitch harmonic
h - hammer on
p - pull off
b - bend
br - bendRelease
pb - preBend
pbr - preBendRelease
brb - bendReleaseBend
\n/ - tremolo bar dip
\n - tremolo bar dive
-/n - tremolo bar Release up
/n\ - tremolo bar inverted dip
/n - tremolo bar return
-\n - tremolo bar Release down
S - shift slide
s - legato slide
/ -  slide into from below or out of upwards
\ -  slide into from above or out of downwards
~ - vibrato
W - wide vibrato
tr - trill
TP - tremolo picking
T - tapping
S - slap
P - pop
< - fade in
^ - brush up
v - brush down
Добавлено: 27.05.2015
Другие материалы по этой песне:

Страница создана 17.06.2012
http://primanota.ru/jim-guthrie/and-we-got-older-chords.htm
Привет, Гость.
Предлагаем пройти революционный курс по гитаре.
Подарок от PrimaNota.Ru, забирай!