PrimaNota.ru - самый крупный в мире бесплатный архив песенных текстов, аккордов, табулатур и нот


Jim Bryson - Satellite - таба, видео

Регистрация Запомнить меня
Войти через:  Facebook Google Twitter Vk Yandex Mail.ru

Jim Bryson - Satellite - таба, видео

Печатать
Просмотров: 63
Уроки эстрадного вокала в Санкт-Петербурге
Easiest to play with a capo on 5 (but tabbed from 0th fret)

Intro:

e|----5-----5-----|----5-----5-----|----5-----5-----|5-----5-----5---|e
B|----------------|----------------|----------------|----------------|B
G|------7-----7---|------9-----9---|------9-----9---|--9-----9-----9-|G
D|--------7-----7-|--------7-----7-|--------9-----9-|----9-----9-----|D
A|5---------------|9---------------|7---------------|----------------|A
E|----------------|----------------|----------------|----------------|E

Verse:

e|----5-----5-----|----5-----5-----|----5-----5-----|5-----5-----5---|e
B|------5-----5---|------5-----5---|------5-----5---|--5-----5-----5-|B
G|----------------|----------------|----------------|----------------|G
D|--------7-----7-|--------7-----7-|--------7-----7-|----7-----7-----|D
A|----------------|5---------------|----------------|----------------|A
E|5---------------|----------------|5---------------|----------------|E

e|----5-----5-----|----5-----5-----|----5-----5-----|5-----5-----5---|e
B|------5-----5---|------5-----5---|------5-----5---|--5-----5-----5-|B
G|----------------|----------------|----------------|----------------|G
D|--------7-----7-|--------7-----7-|--------9-----9-|----9-----9-----|D
A|5---------------|9---------------|7---------------|----------------|A
E|----------------|----------------|----------------|----------------|E

Bridge:

e|------5-----5---|------5---------|----5-----5-----|5-----5-----5---|e
B|----------------|----------------|------5-----5---|--5-----5-----5-|B
G|----9---------9-|----7-----7-----|----------------|----------------|G
D|--7-------9-----|--7---------7---|--------7-----7-|----7-----7-----|D
A|9-------7-------|5-------5-----5-|--7-------------|----------------|A
E|----------------|----------------|5---------------|----------------|E

e|------5-----5---|------5---------|----5-----5-----|----5-----5-----|e
B|----------------|----------------|------5-----5---|------5-----5---|B
G|----9---------9-|----7-----7-----|----------------|----------------|G
D|--7-------9-----|--7---------7---|--------7-----7-|--------7-----7-|D
A|9-------7-------|5-------5-----5-|----------------|5---------------|A
E|----------------|----------------|5---------------|----------------|E

Chorus:

e|----5-----5-----|----5-----5-----|----5-----5-----|5-----5-----5---|e
B|------5-----5---|------5-----5---|----------------|----------------|B
G|----------------|----------------|------9-----9---|--9-----9-----9-|G
D|--------7-----7-|--------7-----7-|--------9-----9-|----9-----9-----|D
A|----------------|5---------------|7---------------|----------------|A
E|5---------------|----------------|----------------|----------------|E

Arrangement:
Intro (x4)
Verse (x2)
Bridge
Chorus
Intro (x2)
Verse (x2)
Bridge
Chorus
Intro (x2)
Intro (x12)

Lyrics:

Verse 1:
I been living here for half my life
It's quiet now especially at night

Verse 2:
Things are pretty lonely on your street
I know that you've been working, I'm in relief

Verse 3:
Maybe I can drop in on my way
Promise there will be no more useless things

Verse 4:
You've been waiting here for half your life
It's quiet now especially at night

Bridge:
You stayed under the satellite for some time
Another night leads to another night

Chorus:
Well I'm not necessarily very smart

Добавлено: 27.04.2016
Вам также может быть интересно:
Другие материалы по этой песне:
  • Аккорды и текст

Страница создана 27.04.2016
http://primanota.ru/jim-bryson/satellite-chords.htm
Привет, Гость.
Предлагаем пройти революционный курс по гитаре.
Подарок от PrimaNota.Ru, забирай!