PrimaNota.ru - самый крупный в мире бесплатный архив песенных текстов, аккордов, табулатур и нот


Jilted John - Gordon is a moron jilted john - бас-таба, видео

Регистрация Запомнить меня
Войти через:  Facebook Google Twitter Vk Yandex Mail.ru

Jilted John - Gordon is a moron jilted john - бас-таба, видео

Печатать
Просмотров: 87
Уроки эстрадного вокала в Санкт-Петербурге


The main riff:

G|----------------------
D|----------------------
A|---33-----------------
E|--2-------------------

little bass solo. Here we go....

G----------------------------
D------------------55-99-----
A-------77-99-55-99----------
E--55-99---------------------

Enjoy   (Great Song)



Добавлено: 06.09.2013
Другие материалы по этой песне:
  • Аккорды и текст

Страница создана 06.09.2013
http://primanota.ru/jilted-john/gordon-is-a-moron-jilted-john-chords.htm
Привет, Гость.
Предлагаем пройти революционный курс по гитаре.
Подарок от PrimaNota.Ru, забирай!