PrimaNota.ru - самый крупный в мире бесплатный архив песенных текстов, аккордов, табулатур и нот


Jill Andrews - Rust Or Gold - аккорды и текст, видео

Регистрация Запомнить меня
Войти через:  Facebook Google Twitter Vk Yandex Mail.ru

Jill Andrews - Rust Or Gold - аккорды и текст, видео

Печатать
Просмотров: 326
Rust Or Gold
Jill Andrews
Artist: Jill Andrews
Song: Rust or Gold
Tuning: Standard (EBGDAE)
Key: Db
---------

[Capo on 1st fret - notes and chords' positions are relative to capo]


Intro: (F    G Am    C    G) 2x


[1st verse]
     F             G  Am
The moon's lit by the sun
                  C                 G
The same as everyone, same as everyone who shines, dear
F                 G   Am                       C
    Home inside your head, you fill it with regret
                G
Fill it with regret, decorate with fear
F             G                  F                G
    Hand to heart, and heart to hand, my hand to you


[Chorus]
         F          C             Dm             Am
Rust or gold, you decide what you see, what you hold
        F                  C              Dm             Am 
Let it burn there in your hand, watch it grow, watch it grow
           F                         C
Breath of life, come and fill your lungs
             Dm              Am
And give it away until it's gone
           F              C          Dm          Am
Or hold it in and let it die, let it die, let it die


[2nd verse: arpeggios' tab at the end]
F               G   Am                   C
    Turn away your eyes, from the other side
                G
From the other side of your wishing star
F                         G   Am                     C
    And roots will twist and wind, a garden in your mind
                  G
A garden in your mind, stay right where you are
F             G                  F                G   Am
    Hand to heart, and heart to hand, my hand to you


[Chorus]
         F          C             Dm             Am
Rust or gold, you decide what you see, what you hold
        F                  C                 Dm             Am
Let it burn there in your hand, or watch it grow, watch it grow
           F                         C
Breath of life, come and fill your lungs
             Dm              Am
And give it away until it's gone
           F              C          Dm         
Or hold it in and let it die, let it die, let it die


Solo:
   F           G   Am            C             G        
e|--------------------------------------------------------|
B|--------------------------------------------------------|
G|-----5---5---7--9-----9-10-9-7-9----9-10-9-7------------|
D|---7---7-------------------------------------9---9-10-9-|
A|--------------------------------------------------------|
E|--------------------------------------------------------|

   F           G   Am            C             G        
e|--------------------------------------------------------|
B|-------------8------------------------------------------|
G|-----5---5------9-----9-10-9-7-9----9-10-9-7------------|
D|-7-----8-------------------------------------9---9-10-9-|
A|--------------------------------------------------------|
E|--------------------------------------------------------|

   F              G             Am                 G
e|--------------------------------------------------------|
B|-10-10-10----8----------------10-10---10-12-10-8--------|
G|----------------7--------------------------------9----7-|
D|------------------------10-9----------------------------|
A|--------------------------------------------------------|
E|--------------------------------------------------------|


[Chorus]
         F          C             Dm                Am
Rust or gold, you decide what you see and what you hold
        F                  C                Dm             Am
Let it burn there in your hand or watch it grow, watch it grow
           F                         C
Breath of life, come and fill your lungs
             Dm              Am
And give it away until it's gone
           F              C          Dm          Am
Or hold it in and let it die, let it die, let it die
           F              C          Dm          Am
Or hold it in and let it die, let it die, let it die


---------

2nd verse arpeggios' tab (played twice):
   F                 G       Am
e|-5-----5-----5-----7-------8------8------8------8------|
B|---------------------0---------------------------------|
G|---5-----5-----5----7-7/9---9--9---9--9---9--9---9--9--|
D|--3-3---3-3---3-3------------10-----10-----10-----10---|
A|-------------------------------------------------------|
E|-------------------------------------------------------|

   C                           G
e|----------------------------------------------------|
B|-8------8------8------8------8-----8-----8-----8----|
G|--9--9---9--9---9--9---9--9---0-0---0-0---0-0---0---|
D|---10-----10-----10-----10-----9-----9-----9-----9--|
A|----------------------------------------------------|
E|----------------------------------------------------|

 Tabbed by Camilla Bazzarella
Добавлено: 15.06.2013
Другие материалы по этой песне:
  • Аккорды и текст

Страница создана 15.06.2013
http://primanota.ru/jill-andrews/rust-or-gold-chords.htm
Привет, Гость.
Предлагаем пройти революционный курс по гитаре.
Подарок от PrimaNota.Ru, забирай!