PrimaNota.ru - самый крупный в мире бесплатный архив песенных текстов, аккордов, табулатур и нот


Jigarthanda - Ding Dong - таба, видео

Регистрация Запомнить меня
Войти через:  Facebook Google Twitter Vk Yandex Mail.ru

Jigarthanda - Ding Dong - таба, видео

Печатать
Просмотров: 68
-------------------------------------------------------------------------------
                             Ding Dong - Jigarthanda
-------------------------------------------------------------------------------
Tabbed by: Elliot Kempson
E-mail: elliotk25@gmail.com

Tuning: EADGBe

e|------------------------------------------------13-15-13-------------------|
B|15---13----13-15-13----------------13~----13h15----------15-13-11-----11-10|
G|--------15----------15-12-10--------------------------------------12~------|
D|-----------------------------12-10-----------------------------------------|
A|---------------------------------------------------------------------------|
E|---------------------------------------------------------------------------|

NOTE: This was made for a school project. I do not own this video or this 
song. This is the part for the bit that sounds like a trumpet.
SONG LINK: https://www.youtube.com/watch?v=t20gsSpNPJE

************************************

| /   slide up
| \   slide down
| h   hammer-on
| p   pull-off
| ~   vibrato
| +   harmonic
| x   Mute note
| b   Bend
| pb  Pre-bend
| br  Bend release
| pbr Pre-bend release
| brb Bend release bend

************************************
Добавлено: 01.06.2016
Другие материалы по этой песне:
  • Аккорды и текст

Страница создана 01.06.2016
http://primanota.ru/jigarthanda/ding-dong-chords.htm
Привет, Гость.
Предлагаем пройти революционный курс по гитаре.
Подарок от PrimaNota.Ru, забирай!