PrimaNota.ru - самый крупный в мире бесплатный архив песенных текстов, аккордов, табулатур и нот


Jig-ai - Gourmets Specialities Of Necrozoophilia - таба, видео

Регистрация Запомнить меня
Войти через:  Facebook Google Twitter Vk Yandex Mail.ru

Jig-ai - Gourmets Specialities Of Necrozoophilia - таба, видео

Печатать
Просмотров: 64
Jig-Ai - Gourmet's Specialites of Necrozoophilia Tab

This is my first tab, so if I messed up someplace, please tell me in the comments and 
remember, be nice ;)

Tuning: Drop A

Riff 1 (after bass gets the song started):

|---------------------------------|
|---------------------------------|
|---------------------------------|
|---------------------------------|
|-0-0-1-0-0-2-1-2-0-0-1-0-0-2-1-0-|
|-0-0-1-0-0-2-1-2-0-0-1-0-0-2-1-0-| X4

Riff 2:


|-------------------------------------------------------------------------|
|-------------------------------------------------------------------------|
|-------------------------------------------------------------------------|
|-------------------------------------------------------------------------|
|-0-0-0--0-1-1-1--1-8-8-8--8-3-3-3--3-0-0-0--0-1-1-1--1-3-3-3--3-1-1-1--1-|
|-0-0-0--0-1-1-1--1-8-8-8--8-3-3-3--3-0-0-0--0-1-1-1--1-3-3-3--3-1-1-1--1-| X2

Riff 1 X4

Riff 2 X2

Riff 3:

|-----------------|
|-----------------|
|-----------------|
|-----------------|
|-1-2-3-2-4-3-2-3-|
|-1-2-3-2-4-3-2-3-| X2

Riff 4:

|-----------------|
|-----------------|
|-----------------|
|-----------------|
|-0-1-2-1-3-2-1-2-|
|-0-1-2-1-3-2-1-2-| X8 (PM the last two notes the second time)

Riff 4 X8 (PM the last two notes the second time)

Riff 1 (after bass) X4

Riff 2 X2

Riff 3 X2

Riff 4 X8 (PM the last two notes the second time)

At the end of the song, play riff 4 like this:


            PM----------|
|-----------------------|
|-----------------------|
|-----------------------|
|-----------------------|
|-0-1-2-1-3-2-1-2-0-----|
|-0-1-2-1-3-2-1-2-0-----|
Добавлено: 08.11.2015
Вам также может быть интересно:
Другие материалы по этой песне:

Страница создана 08.11.2015
http://primanota.ru/jig-ai/gourmets-specialities-of-necrozoophilia-chords.htm
Привет, Гость.
Предлагаем пройти революционный курс по гитаре.
Подарок от PrimaNota.Ru, забирай!