PrimaNota.ru - самый крупный в мире бесплатный архив песенных текстов, аккордов, табулатур и нот


Jhene Aiko - Eternal Sunshine - таба, видео

Регистрация Запомнить меня
Войти через:  Facebook Google Twitter Vk Yandex Mail.ru

Jhene Aiko - Eternal Sunshine - таба, видео

Печатать
Просмотров: 62
So this song is great and thankfully it's just got of couple of chords going on the piano for the 
most part.

The main chord progression is:

||Dmaj7   |Gmaj    |Gmin    |Dmaj7   ||

There's a little Gdim thrown in on the switch from Gmin to Dmaj7. 

So how to play this on guitar rather than piano. It's impossible surely, you haven't got four hands
have you? Well just call the left hand part the rhythm part and the right the lead.

Left Hand/Rhythm

E||----------------|------------------------|------------------------|----------------||
B||----------------|------------------------|------------------------|----------------||
G||7-7-7-7-7-7-7-7-|7--7--7--7--7--7--7--7--|7--7--7--7--7--7--6--6--|7-7-7-7-7-7-7-7-||
D||7-7-7-7-7-7-7-7-|9--9--9--9--9--9--9--9--|8--8--8--8--8--8--8--8--|7-7-7-7-7-7-7-7-||
A||9-9-9-9-9-9-9-9-|10-10-10-10-10-10-10-10-|10-10-10-10-10-10-10-10-|9-9-9-9-9-9-9-9-||
E||----------------|------------------------|------------------------|----------------||

 ||Dmaj7           |Gmaj                    |Gmin             |     | Dmaj7           ||
  (1st inversion)                                             |     |
   NB: The major 7th                                           \   /
       is played in                                             \ /
       the right hand                                            |
       part                                                      Note: This is the diminished G
                                                                       chord that I mentioned.
                                                                       Sounds terrible on its own
                                                                       but in context it sounds
                                                                       lovely. Music's mad ey.

Right Hand

E||--------------------14|----15-14-------17-15-|14------14-------|----------------||
B||14---15-14----15-17---|----------------------|-----15----------|14------------15||
G||----------------------|----------------------|-----------------|----------------||
D||----------------------|----------------------|-----------------|----------------||
A||----------------------|----------------------|-----------------|----------------||
E||----------------------|----------------------|-----------------|----------------||

The rhythm's obviously not perfect and it falls a bit funny against the chords but I'm sure you'll
figure it out. I have faith in you.
Добавлено: 18.11.2015
Другие материалы по этой песне:
  • Аккорды и текст

Страница создана 18.11.2015
http://primanota.ru/jhene-aiko/eternal-sunshine-chords.htm
Привет, Гость.
Предлагаем пройти революционный курс по гитаре.
Подарок от PrimaNota.Ru, забирай!