PrimaNota.ru - самый крупный в мире бесплатный архив песенных текстов, аккордов, табулатур и нот


Jfa - We Know You Suck - таба, видео

Регистрация Запомнить меня
Войти через:  Facebook Google Twitter Vk Yandex Mail.ru

Jfa - We Know You Suck - таба, видео

Печатать
Просмотров: 95
-------------------------------------------------------------------------------
                             We Know You Suck - J.F.A.
-------------------------------------------------------------------------------


Tuning:Standard
                        x6
e|---------------------|
B|---------------------|
G|--5\6-6-6-6-6-6-6-6--|
D|--5\6-6-6-6-6-6-6-6--|
A|--3\4-4-4-4-4-4-4-4--|
E|---------------------|
             
e|-----------------------------------------------------|
B|-----------------------------------------------------|
G|--7-7-----9-9-9-9--7-7--------------7-7-----9-9-9-9--|
D|--7-7-7-7-9-9-9-9--7-7-7-7-9-9-9-9--7-7-7-7-9-9-9-9--|
A|--5-5-7-7-7-7-7-7--5-5-7-7-9-9-9-9--5-5-7-7-7-7-7-7--|
E|------5-5--------------5-5-7-7-7-7------5-5----------|

                        x6
e|---------------------|
B|---------------------|
G|--5\6-6-6-6-6-6-6-6--|
D|--5\6-6-6-6-6-6-6-6--|
A|--3\4-4-4-4-4-4-4-4--|
E|---------------------|
             
e|-----------------------------------------------------|
B|-----------------------------------------------------|
G|--7-7-----9-9-9-9--7-7--------------7-7-----9-9-9-9--|
D|--7-7-7-7-9-9-9-9--7-7-7-7-9-9-9-9--7-7-7-7-9-9-9-9--|
A|--5-5-7-7-7-7-7-7--5-5-7-7-9-9-9-9--5-5-7-7-7-7-7-7--|
E|------5-5--------------5-5-7-7-7-7------5-5----------|

                        x2
e|---------------------|
B|---------------------|
G|--5\6-6-6-6-6-6-6-6--|
D|--5\6-6-6-6-6-6-6-6--|
A|--3\4-4-4-4-4-4-4-4--|
E|---------------------|

e|----------------------------------------------|
B|----------------------------------------------|
G|--10\11-11-10\11-11--11-11-12-12-13-13-14-14--|
D|--10\11-11-10\11-11--11-11-12-12-13-13-14-14--|
A|--8-\9--9--8-\9--9---9--9--10-10-11-11-12-12--|
E|----------------------------------------------|
                        x2
e|---------------------|
B|---------------------|
G|--5\6-6-6-6-6-6-6-6--|
D|--5\6-6-6-6-6-6-6-6--|
A|--3\4-4-4-4-4-4-4-4--|
E|---------------------|

e|-----------------------------------------------------|
B|-----------------------------------------------------|
G|--7-7-----9-9-9-9--7-7--------------7-7-----9-9-9-9--|
D|--7-7-7-7-9-9-9-9--7-7-7-7-9-9-9-9--7-7-7-7-9-9-9-9--|
A|--5-5-7-7-7-7-7-7--5-5-7-7-9-9-9-9--5-5-7-7-7-7-7-7--|
E|------5-5--------------5-5-7-7-7-7------5-5----------|

e|-------------|
B|-------------|
G|-----6-------|
D|-----6-------|
A|-----4-------|
E|-------------|

************************************

| /   slide up
| \   slide down
| h   hammer-on
| p   pull-off
| ~   vibrato
| +   harmonic
| x   Mute note
| b   Bend
| pb  Pre-bend
| br  Bend release
| pbr Pre-bend release
| brb Bend release bend

************************************
Добавлено: 09.07.2013
Другие материалы по этой песне:
  • Аккорды и текст

Страница создана 09.07.2013
http://primanota.ru/jfa/we-know-you-suck-chords.htm
Привет, Гость.
Предлагаем пройти революционный курс по гитаре.
Подарок от PrimaNota.Ru, забирай!