PrimaNota.ru - самый крупный в мире бесплатный архив песенных текстов, аккордов, табулатур и нот


Jfa - Kick You - таба, видео

Регистрация Запомнить меня
Войти через:  Facebook Google Twitter Vk Yandex Mail.ru

Jfa - Kick You - таба, видео

Печатать
Просмотров: 67
-------------------------------------------------------------------------------
                             Kick You - J.F.A.
-------------------------------------------------------------------------------


Tuning:Standard

Intro       Let Ring
e|--------------------|
B|--------------------|
G|-----7--------------|
D|-----7--------------|
A|-----5--------------|
E|--------------------|
                               x4
e|----------------------------|
B|----------------------------|
G|--7-7-7--7-7-7--6-6-6--4-4--|
D|--7-7-7--7-7-7--6-6-6--4-4--|
A|--5-5-5--5-5-5--4-4-4--2-2--|
E|----------------------------|
                                           x2
e|----------------------------------------|
B|----------------------------------------|
G|--11-11--11--9-9--9--11-11--11--7-7--7--|
D|--9--9---9---7-7--7--9--9---9---5-5--5--|
A|----------------------------------------|
E|----------------------------------------|
                               x4
e|----------------------------|
B|----------------------------|
G|--7-7-7--7-7-7--6-6-6--4-4--|
D|--7-7-7--7-7-7--6-6-6--4-4--|
A|--5-5-5--5-5-5--4-4-4--2-2--|
E|----------------------------|
                                           x2
e|----------------------------------------|
B|----------------------------------------|
G|--11-11--11--9-9--9--11-11--11--7-7--7--|
D|--9--9---9---7-7--7--9--9---9---5-5--5--|
A|----------------------------------------|
E|----------------------------------------|
                              x6
e|---------------------------|   the last time
B|---------------------------|   let it ring
G|------7-----7-----6--------|
D|----7-----7-----6-----4-2--|
A|--5-----5-----4-----2---2--|
E|------------------------0--|

 Solo

e|---------------------------------------------------------------------------|
B|---------------------------------------------------------------------------|
G|--14-14-14-14-14-14-13-13-13-13-13-13-12-12-12-12-12-12-11-11-11-11-11-11--|
D|--14-14-14-14-14-14-13-13-13-13-13-13-12-12-12-12-12-12-11-11-11-11-11-11--|
A|--12-12-12-12-12-12-11-11-11-11-11-11-10-10-10-10-10-10-9--9--9--9--9--9---|
E|---------------------------------------------------------------------------|

e|--10-10-10-10-10-10-9-9-9-7-7-7--10-10-10-10-10-10-9-9-9-7-7-7--|
B|--10-10-10-10-10-10-9-9-9-7-7-7--10-10-10-10-10-10-9-9-9-7-7-7--|
G|----------------------------------------------------------------|
D|----------------------------------------------------------------|
A|----------------------------------------------------------------|
E|----------------------------------------------------------------|


e|-----10-10----10-10---9----7---10-10-10-10-10-10-9-9-9-7-7-7--|
B|--10-10-10-10-10-10---9----7---10-10-10-10-10-10-9-9-9-7-7-7--|
G|--12b------12b--------11b--9b---------------------------------|
D|--------------------------------------------------------------|
A|--------------------------------------------------------------|
E|--------------------------------------------------------------|
                                           x2
e|----------------------------------------|
B|----------------------------------------|
G|--11-11--11--9-9--9--11-11--11--7-7--7--|
D|--9--9---9---7-7--7--9--9---9---5-5--5--|
A|----------------------------------------|
E|----------------------------------------|

                           let ring
e|--------------------------------|   
B|--------------------------------|   
G|------7-----7-----6-------------|
D|----7-----7-----6-----4-2-------|
A|--5-----5-----4-----2---2-------|
E|------------------------0-------|

************************************

| /   slide up
| \   slide down
| h   hammer-on
| p   pull-off
| ~   vibrato
| +   harmonic
| x   Mute note
| b   Bend
| pb  Pre-bend
| br  Bend release
| pbr Pre-bend release
| brb Bend release bend

************************************
Добавлено: 06.12.2013
Вам также может быть интересно:
Другие материалы по этой песне:
  • Аккорды и текст

Страница создана 06.12.2013
http://primanota.ru/jfa/kick-you-chords.htm
Привет, Гость.
Предлагаем пройти революционный курс по гитаре.
Подарок от PrimaNota.Ru, забирай!