PrimaNota.ru - самый крупный в мире бесплатный архив песенных текстов, аккордов, табулатур и нот


Jewish Folk Tune - Shir Lamaalot - таба, видео

Регистрация Запомнить меня
Войти через:  Facebook Google Twitter Vk Yandex Mail.ru

Jewish Folk Tune - Shir Lamaalot - таба, видео

Печатать
Просмотров: 238
Shir LaMaalot  
(Psalm 121)


~ Voice Melody tabbed for guitar ~


Tab by Avi Yaacov, Israel



e|-------------|-----------|--------------|---------------|
B|--1-0---0----|------0-1--|--1-0-3--0-1--|--1-0-----0----|
G|------2------|----2------|--------------|------2-0---2--|
D|----------2--|--2--------|--------------|---------------|
A|-------------|-----------|--------------|---------------| 
E|-------------|-----------|--------------|---------------|



e|-------------|-----------|-------------|-----------------|
B|--1-0---0----|------0-1--|--0-3---0-1--|--1-0-----0-0----|
G|------2------|----2------|-------------|------2-0-----2--|
D|----------2--|--2--------|-------------|-----------------|
A|-------------|-----------|-------------|-----------------|  
E|-------------|-----------|-------------|-----------------|



e|---------------|--------0-0--|----0------|-------------------|
B|--------0-0-1--|----0-1------|--1---3-3--|--0-3---1-0-1-0----|
G|----0-2--------|--2----------|-----------|----------------2--|
D|--3------------|-------------|-----------|-------------------|
A|---------------|-------------|-----------|-------------------|
E|---------------|-------------|-----------|-------------------|


e|-------------|-----------|-------------|
B|------0-1-0--|--0-0------|------0-0-1--|
G|----2--------|------2-2--|----2--------|
D|--2----------|-----------|--3----------|
A|-------------|-----------|-------------|
E|-------------|-----------|-------------|


e|------0-0-0--|----0-0-1--|--------------------|
B|--0-1--------|--3--------|--0-1-3-1--0-1-0----|
G|-------------|-----------|-----------------2--|
D|-------------|-----------|--------------------|
A|-------------|-----------|--------------------|
E|-------------|-----------|--------------------|



e|-------------|---------|----------------|
B|------0-1-0--|--0-0----|------0--0-0-1--|
G|----2--------|------2--|----2-----------|
D|--3----------|---------|--3-------------|
A|-------------|---------|----------------|
E|-------------|---------|----------------|



e|-------------|-----------|------1--0------------------|
B|------0-1-0--|--0-0------|--0-1------3-1-0----1-0-----|
G|----2--------|------2-2--|------------------------2---|
D|--3----------|-----------|----------------------------|
A|-------------|-----------|----------------------------|
E|-------------|-----------|----------------------------|




e|------1---0--------------------|
B|--0-1-------3--1-0---0-0-------|
G|-------------------------2-2---|
D|-------------------------------|
A|-------------------------------|
E|-------------------------------|
Добавлено: 14.08.2015
Вам также может быть интересно:
Другие материалы по этой песне:
  • Аккорды и текст

Страница создана 14.08.2015
http://primanota.ru/jewish-folk-tune/shir-lamaalot-chords.htm
Привет, Гость.
Предлагаем пройти революционный курс по гитаре.
Подарок от PrimaNota.Ru, забирай!