PrimaNota.ru - самый крупный в мире бесплатный архив песенных текстов, аккордов, табулатур и нот


Jewish Folk Tune - Hanukkah Songs - таба, видео

Регистрация Запомнить меня
Войти через:  Facebook Google Twitter Vk Yandex Mail.ru

Jewish Folk Tune - Hanukkah Songs - таба, видео

Печатать
Просмотров: 105
Hanukkah Songs


~ Voice Melody tabbed for guitar ~


Tab by Avi Yaacov
Israel, 2014



:::::::     Maoz Zur      ::::::: 

e|-----------------|------------------------|
B|-----------------|--1-1-3-----------------|
G|--------3-2-0----|--------0--2-3-2-0------|
D|--3---3-------3--|-------------------3----|
A|----3------------|------------------------|
E|-----------------|------------------------|   X2
                                                        


e|----------0-1----|--1-0-------------------|
B|--1-1-3-3-----1--|------3-1---1-3-1-------|
G|-----------------|------------------3-2---|
D|-----------------|------------------------|
A|-----------------|------------------------|
E|-----------------|------------------------|


e|---------|-----------|----------------------|
B|------1--|--3--------|------1---------------|
G|--2-3----|----0-2-3--|--2-----2-3-2-0-------|
D|---------|-----------|----3-----------3-----|
A|---------|-----------|----------------------|
E|---------|-----------|----------------------|




:::::::     Yamey Hanukkah      ::::::: 

e|------------7-------------------|
B|--7-7---7-7-----7-7-7--5-3-5-3--|
G|--------------------------------|  X2
D|--------------------------------|
A|--------------------------------|
E|--------------------------------|

e|-----2-0---------0---------|-----2-0---------0---------|
B|--3------3---3-3---3-2-3---|--3------3---3-3---3-2-0---|
G|---------------------------|---------------------------|
D|---------------------------|---------------------------|
A|---------------------------|---------------------------|
E|---------------------------|---------------------------|

e|----2-2-----2-2------2---2-2-3-2-0-2--|
B|--0-------0--------0------------------|
G|--------------------------------------|
D|--------------------------------------|
A|--------------------------------------|
E|--------------------------------------|

e|--2---2-2-3----2-2---2-2---2-2-3---2-0---------0-0---0-2----|
B|---------------------------------------3---3-3-----3--------|  
G|------------------------------------------------------------|
D|------------------------------------------------------------|
A|------------------------------------------------------------|
E|------------------------------------------------------------|

e|--2---2-2-3----2-2---2-2---2-2-3---2-0---------0-0----------|
B|---------------------------------------3---3-3-----3-2-0----|  
G|------------------------------------------------------------|
D|------------------------------------------------------------|
A|------------------------------------------------------------|
E|------------------------------------------------------------|




:::::::     Banu Choshech LeGaresh      ::::::: 

e|-------------------|       |--0-----0---------0--|
B|--0---0-3---2-3-0--|       |------3-----3-0-3----|
G|----2--------------|       |---------------------|
D|-------------------| x2    |---------------------| x2
A|-------------------|       |---------------------|
E|-------------------|       |---------------------|


e|--2-0------------------|--2-0-----|---2-0--------|
B|------3--3-0---0---0---|------3---|-------3-0----|
G|-----------------2-----|----------|--------------|
D|-----------------------|----------|--------------|  x2
A|-----------------------|----------|--------------|
E|-----------------------|----------|--------------|
Добавлено: 14.08.2015
Другие материалы по этой песне:
  • Аккорды и текст

Страница создана 14.08.2015
http://primanota.ru/jewish-folk-tune/hanukkah-songs-chords.htm
Привет, Гость.
Предлагаем пройти революционный курс по гитаре.
Подарок от PrimaNota.Ru, забирай!