PrimaNota.ru - самый крупный в мире бесплатный архив песенных текстов, аккордов, табулатур и нот


Jewel - With You I Will Always Be - таба, видео

Регистрация Запомнить меня
Войти через:  Facebook Google Twitter Vk Yandex Mail.ru

Jewel - With You I Will Always Be - таба, видео

Печатать
Просмотров: 108
Уроки эстрадного вокала в Санкт-Петербурге
With You I Will Always Be
Performed by Jewel
Tabbed by Brian McElwain

The entire song is this figure repeated:

e|-2-----0-----3-----2-----0-------0-------0-------2-------------
B|---3-----3-----3-----3-------3-------3-------3-----3-----------
G|-----2-----2-----2-----2-------2-------2-------2-----2---------
D|-0-----0-----0-----0---------------------0^2-----0-------------
A|---------------------------------0^2---------------------------
E|-------------------------0^2-----------------------------------
 
e|-2-----0-----3-----2-----0-------0-------0---------------------
B|---3-----3-----3-----3-------3-------3-------3---3-------------
G|-----2-----2-----2-----2-------2-------2-------2---------------
D|-0-----0-----0-----0---------------------0^2-----0-------------
A|---------------------------------0^2---------------------------
E|-------------------------0^2-----------------------------------
     
Добавлено: 09.06.2013
Другие материалы по этой песне:
  • Аккорды и текст

Страница создана 09.06.2013
http://primanota.ru/jewel/with-you-i-will-always-be-chords.htm
Привет, Гость.
Предлагаем пройти революционный курс по гитаре.
Подарок от PrimaNota.Ru, забирай!