PrimaNota.ru - самый крупный в мире бесплатный архив песенных текстов, аккордов, табулатур и нот


Jewel - Passing Time - таба, видео

Регистрация Запомнить меня
Войти через:  Facebook Google Twitter Vk Yandex Mail.ru

Jewel - Passing Time - таба, видео

Печатать
Просмотров: 86
Passing Time
By Jewel Kilcher
Tabbed out by Levi Ichabod Lee

Standard Tuning

Riff 1
E |----------------------------------
B |----3---3---3---3-----------------
G |--4---4---4---4-------------------
D |----------------------------------
A |----------------------------------
E |----------------------------------


Riff 2
E |----0---0---0---0-----------------
B |----------------------------------
G |--2---2---2---2-------------------
D |----------------------------------
A |----------------------------------
E |----------------------------------


Riff 3 			               X2
E |-------3----------------5------|----------------|-------------------
B |---3-----3----------2-----2----|--3---3---3---3-|-------------------
G |-0---0-------0----2---2-----2--|4---4---4---4---|-------------------
D |-------------------------------|----------------|-------------------
A |-------------------------------|----------------|-------------------
E |-------------------------------|----------------|-------------------


Order:


Intro

Riff 1, Riff 2     x2


Verse 1

Riff 1, Riff 2    x12


Chorus

Riff 3            x2


Verse 2

Riff 1, Riff 2    x12


Chorus 2

Riff 3            x2



Sorry about not adding lyrics but I think you can find it at www.jeweljk.com
Anyways, this is one of my favorite songs from her. It's not absolutely 
fancy or anything but I just like its slowness. Very relaxing. =)

Any comments, suggestions, or concerns? Write me at

levi_ichabod@hotmail.com

You can msg me if you have msn =)

To tell you the truth, I'm quite proud of tabbing this out, especially if 
the artist is my guitar guru and inspiration.

Blessings to Jewel...    =)
     
Добавлено: 22.07.2013
Другие материалы по этой песне:
  • Аккорды и текст

Страница создана 22.07.2013
http://primanota.ru/jewel/passing-time-chords.htm
Привет, Гость.
Предлагаем пройти революционный курс по гитаре.
Подарок от PrimaNota.Ru, забирай!