PrimaNota.ru - самый крупный в мире бесплатный архив песенных текстов, аккордов, табулатур и нот


Jevetta Steele - Calling You - аккорды и текст, таба, видео

Регистрация Запомнить меня
Войти через:  Facebook Google Twitter Vk Yandex Mail.ru

Jevetta Steele - Calling You - аккорды и текст, таба, видео

Печатать
Просмотров: 482
Уроки эстрадного вокала в Санкт-Петербурге
Авторы музыки: Bob Telson
Авторы текста: Bob Telson
Calling You
Jevetta Steele
Song: Calling You (J Steele version)
Artist: Jevetta Steele 
Songwriter: Bob Telson

Chors/Tab analysis: Mats Fagergren (mats.fagergren@roxling.com)

Several versions exist on UG when it comes to this fantastic song.
I Like the "J Steele" version. This is my suggested version.
I have included both tabs and chords including updated interlude as well as 
the ending (that have some new chords/tabs)

The Chords = tabs.

The finger picking/chords require that your fingers are long and 
and stretchy, so I have arranged the chords and tabs with:
 
******************************
* Capo on the third (3) fret * 
*                            *
******************************
 
*VERSE1*

 Bm(b13)          Csus2(#11)  
e---------------I--------------I 
B----------3----I----------3---I 
G--------0------I--------0-----I 
D-----4---------I------4-------I 
A--2------------I----3---------I 
E---------------I--------------I

A desert road from Vegas to nowhere,

  Em9            A7sus4
e--------------I--------------I
B----------3---I---------3----I
G--------0-----I-------0------I
D------4-------I-----2--------I
A--------------I---0----------I
E---0----------I--------------I

Some place better than where you've been.

 Bm(b13)         Csus2(#11)  
e---------------I--------------I 
B----------3----I----------3---I 
G--------0------I--------0-----I 
D-----4---------I------4-------I 
A--2------------I----3---------I 
E---------------I--------------I

A coffee machine that needs some fixing

  Em9            A7sus4
e--------------I--------------I
B----------3---I---------3----I
G--------0-----I-------0------I
D------4-------I-----2--------I
A--------------I---0----------I
E---0----------I--------------I

In a little cafe just around the bend.

*Chorus*

  Cm6/Eb         D/C  
e-------------3-I-----------2--I 
B----------1----I---------3----I 
G--------2------I------2-------I 
D-----1---------I--------------I 
A---------------I----3---------I 
E---------------I--------------I

I.............................am 

 Bm7-5           E7 
e-------------1-I-----------0--I 
B----------3----I---------3----I 
G-------2-------I------1-------I 
D---------------I--------------I 
A----2----------I--------------I 
E---------------I--0-----------I
calling.....    you.           Can't you hear me?

 Dbm7-5            Gbaug  
e-------------3-I-----------2--I 
B----------5----I---------3----I 
G--------4------I------3-------I 
D---------------I----4---------I 
A-----4---------I--------------I 
E---------------I--------------I

I.............................am 

 Bm7-5           E7/D 
e-------------1-I-----------0--I 
B----------3----I---------3----I 
G-------2-------I------1-------I 
D---------------I--0-----------I 
A----2----------I--------------I 
E---------------I--------------I
calling.....    you.            
 

*VERSE2*

 Bm(b13)         Csus2(#11)  
e---------------I--------------I 
B----------3----I----------3---I 
G--------0------I--------0-----I 
D-----4---------I------4-------I 
A--2------------I----3---------I 
E---------------I--------------I

  A hot dry wind  blows right through me.

  Em9            A7sus4
e--------------I--------------I
B----------3---I---------3----I
G--------0-----I-------0------I
D------4-------I-----2--------I
A--------------I---0----------I
E---0----------I--------------I

The baby's crying and I can't sleep,

 Bm(b13)         Csus2(#11)  
e---------------I--------------I 
B----------3----I----------3---I 
G--------0------I--------0-----I 
D-----4---------I------4-------I 
A--2------------I----3---------I 
E---------------I--------------I

But we both know a change is coming,

  Em9            A7sus4
e--------------I--------------I
B----------3---I---------3----I
G--------0-----I-------0------I
D------4-------I-----2--------I
A--------------I---0----------I
E---0----------I--------------I

Coming closer   sweet release.

 
*Chorus*

 Cm6/Eb          D/C 
e-------------3-I-----------2--I 
B----------1----I---------3----I 
G--------2------I------2-------I 
D-----1---------I--------------I 
A---------------I----3---------I 
E---------------I--------------I

I.............................am 

 Bm7-5           E7 
e-------------1-I-----------0--I 
B----------3----I---------3----I 
G-------2-------I------1-------I 
D---------------I--------------I 
A----2----------I--------------I 
E---------------I--0-----------I
calling.....    you.           Can't you hear me?

 Dbm7-5           Gbaug  
e-------------3-I-----------2--I 
B----------5----I---------3----I 
G--------4------I------3-------I 
D---------------I---4----------I 
A-----4---------I--------------I 
E---------------I--------------I

I.............................am 

 Bm7-5           E7/D
e-------------1-I-----------0--I 
B----------3----I---------3----I 
G-------2-------I------1-------I 
D---------------I--0-----------I 
A----2----------I--------------I 
E---------------I--------------I

calling.....    you.            
 
**INTERLUDE**

  Cmadd9/Eb       D7 
e---------------I--------------I 
B-----------3---I-----------3--I 
G---------5-----I---------5----I 
D-------5-------I------4-------I 
A----6----------I---5----------I 
E---------------I--------------I
Ohooooooo.......................

 Bbadd9           F7sus4/Bb      Bbadd9        Eb6/Bb
e---------------I--------------I--------------I--------------I
B-----------3---I-----------4--I----------3---I------------1-I
G---------5-----I---------5----I--------5-----I---------3----I
D-------3-------I------3-------I------3-------I------1-------I
A----1----------I---1----------I----1---------I---1----------I
E---------------I--------------I--------------I--------------I

 Bbadd9           F7sus4/Bb      Bbadd9         Gsus4   D7
e---------------I--------------I--------------I--------------I 
B-----------3---I-----------4--I-----------3--I------3-----3-I
G---------5-----I---------5----I---------5----I-----5-----5--I
D-------3-------I------3-------I------3-------I---5------4---I
A----1----------I---1----------I----1---------I--------------I
E---------------I--------------I--------------I--------------I

** CHORUS **

I am calling you.
I know you hear me.
I am calling you.

**VERSE1** 
A desert road from Vegas to nowhere,
Some place better than where you've been.
A coffee machine that needs some fixing
In a little cafe just around the bend.

**VERS2**
A hot dry wind blows right through me.
The baby's crying and I can't sleep
And I can feel a change is coming,
Coming closer sweet release.

**CHORUS**
I am calling you.
Can't you hear me?
I am calling you.

**CHORUS--"Instrumental" and END**

*Chorus*

  Cm6/Eb          D/C  
e-------------3-I-----------2--I 
B----------1----I---------3----I 
G--------2------I------2-------I 
D-----1---------I--------------I 
A---------------I----3---------I 
E---------------I--------------I

 

 Bm7-5           E7 
e-------------1-I-----------0--I 
B----------3----I---------3----I 
G-------2-------I------1-------I 
D---------------I--------------I 
A----2----------I--------------I 
E---------------I--0-----------I
 
Ahahaaaa oaoaaaa.....

 Dbm7-5            Gbaug  
e-------------3-I-----------2--I 
B----------5----I---------3----I 
G--------4------I------3-------I 
D---------------I---4----------I 
A----4----------I--------------I 
E---------------I--------------I

Oooooo....

 Bm7-5            E7/D
e-------------1-I-----------0--I 
B----------3----I---------3----I 
G-------2-------I------1-------I 
D---------------I---0----------I 
A----2----------I--------------I 
E---------------I--------------I

ooo      

** END **

 Am7-5            D7             Bm(b13)        C(#11)
e---------------I--------------I--------------I--------------I
B------------3--I----------3---I--------3-----I----------5---I 
G----------5----I--------5-----I------0-------I-------0------I 
D-------5-------I-----4------.-I----4---------I-----4--------I 
A---0-----------I--5-----------I--2-----------I--3-----------I
E---------------I--------------I--------------I--------------I     
 
***
 
Добавлено: 29.05.2016
Другие материалы по этой песне:
  • Аккорды и текст

Страница создана 08.02.2014
http://primanota.ru/jevetta-steele/calling-you-chords.htm
Привет, Гость.
Предлагаем пройти революционный курс по гитаре.
Подарок от PrimaNota.Ru, забирай!