PrimaNota.ru - самый крупный в мире бесплатный архив песенных текстов, аккордов, табулатур и нот


Jeugd Van Tegenwoordig, De - Sterrenstof - таба, бас-таба, видео

Регистрация Запомнить меня
Войти через:  Facebook Google Twitter Vk Yandex Mail.ru

Jeugd Van Tegenwoordig, De - Sterrenstof - таба, бас-таба, видео

Печатать
Просмотров: 24
De Jeugd Van Tegenwoordig - Sterrenstof (intro)

Tab by: Tijneliaa

(Tuning: Standard)

e|--------------------------------------------
B|------9-----------------------9-------------
G|----8----5-----------5------8----5----------
D|--6--------8--6-8------8--6--------8--6-8---
A|------------------8-----------------------8-
E|--------------------------------------------

e|-------------------------------------------------------
B|-------------9-----------------------9-----------------
G|--5--------8----5-----------5------8----5----------5---
D|----8----6--------8--6-8------8--6--------8--6-8-----8-
A|-------------------------8-----------------------8-----
E|-------------------------------------------------------

e|------------------8~----9-8---------8~-----------
B|--9~------11---11-----------11-9-11--------11-9~-
G|--------8----8---------------------------8-------
D|-------------------------------------------------
A|-------------------------------------------------
E|-------------------------------------------------
Добавлено: 06.05.2016
Другие материалы по этой песне:
  • Аккорды и текст

Страница создана 06.05.2016
http://primanota.ru/jeugd-van-tegenwoordig-de/sterrenstof-chords.htm
Привет, Гость.
Предлагаем пройти революционный курс по гитаре.
Подарок от PrimaNota.Ru, забирай!