PrimaNota.ru - самый крупный в мире бесплатный архив песенных текстов, аккордов, табулатур и нот


Jettingham - Cheating - текст песни, таба, бас-таба, видео

Регистрация Запомнить меня
Войти через:  Facebook Google Twitter Vk Yandex Mail.ru

Jettingham - Cheating - текст песни, таба, бас-таба, видео

Печатать
Просмотров: 183
Авторы: Jettingham

http://www.jettingham.com/middleframeset.HTML

-------------------------------------------------------------------------------
			     	Cheating - Jettingham
-------------------------------------------------------------------------------

By:Nikon8831 (First Time Tabber)
X = Chucking
* = Palm Mute
^ = Bend Up
	
Intro
e|---------------------------------------------------------------------------|
B|---------------------------------------------------------------------------|
G|----9----------------------------------------------------------------------|
D|----9-----9----6----7------------------------------------------------------|
A|----7-----9----6----7- <--let ring ----------------------------------------|
E|----------7----4----5------------------------------------------------------|
            *     *    *    

Pre-Verse x1
e|---------------------------------------------------------------------------|
B|---------------------------------------------------------------------------|
G|-------9-------------------------------------------------------------------|
D|-------9- x4-------9--------------6------------7--------7-X-77-X--7--------|
A|----777-777--------9--- x4--------6--- x4------7-- x8---7-X-77-X--7--------|
E|----------------777-777--------444-444---------5--------5-X-55-X--5--------|
							For this part, listen
							to the song to get it right on

Verse	x4                              After 4th time
e|----------------------------------- |--------------------------------------|
B|----------------------------------- |-^^-----------------------------------|
G|------9---------------------------- |-9------------------------------------|
D|------9-- x12----6/7--7----7/9--9-- |-9------------------------------------|
A|------7----------6/7--7----7/9--9-- |-7------------------------------------|
E|-----------------4/5--5----5/7--7-- |--------------------------------------|
        	*               X         X
  Chorus Part 1     
e|---------------------------------------------------------------------------|
B|---------------------------------------------------------------------------|
G|------9--------------------------------------------------------------------|
D|------9-Let Ring-9-----------6------------7---7---7------------------------|
A|------7----------9-Let Ring--6--Let Ring--7---7---7------------------------|
E|-----------------7-----------4------------5---5---5------------------------|
	  Pre-Verse/ Chorus Part 2 x1
e|---------------------------------------------------------------------------|
B|---------------------------------------------------------------------------|
G|-------9-------------------------------------------------------------------|
D|-------9- x4-------9--------------6------------7--------7-X-77-X--7--------|
A|----777-777--------9--- x4--------6--- x4------7-- x8---7-X-77-X--7--------|
E|----------------777-777--------444-444---------5--------5-X-55-X--5--------|
	Post Chorus  x1
e|---------------------------------------------------------------------------|
B|---------------------------------------------------------------------------|
G|-------9-------------------------------------------------------------------|
D|-------9- x4-------9----------------7-X-77-X--7----------------------------|
A|----777-777--------9--- x2----------7-X-77-X--7----------------------------|
E|----------------777-777-------------5-X-55-X--5----------------------------|
	Verse	x4                              After 4th time
e|----------------------------------- |--------------------------------------|
B|----------------------------------- |-^^-----------------------------------|
G|------9---------------------------- |-9------------------------------------|
D|------9-- x12----6/7--7----7/9--9-- |-9------------------------------------|
A|------7----------6/7--7----7/9--9-- |-7------------------------------------|
E|-----------------4/5--5----5/7--7-- |--------------------------------------|
        	*               X         X
	Pre-Verse/ Chorus Part 2 x1
e|---------------------------------------------------------------------------|
B|---------------------------------------------------------------------------|
G|-------9-------------------------------------------------------------------|
D|-------9- x4-------9--------------6------------7--------7-X-77-X--7--------|
A|----777-777--------9--- x4--------6--- x4------7- x8---7-X-77-X--7---------|
E|----------------777-777--------444-444---------5--------5-X-55-X--5--------|

Solo(Not Yet Tabbed)

Intro x2              Fist Time             2nd Time
e|-------------------|------------------|------------------------------------|
B|-------------------|------------------|------------------------------------|
G|----9--------------|------------------|------------------------------------|
D|----9-----9----6---|-7----------------|---7---7---7------------------------|
A|----7-----9----6---|-7- <--let ring --|---7---7---7------------------------|
E|----------7----4---|-5----------------|---5---5---5------------------------|
             *     *    *    

Pre-Verse/ Chorus Part 2 x2
e|---------------------------------------------------------------------------|
B|---------------------------------------------------------------------------|
G|-------9-------------------------------------------------------------------|
D|-------9- x4-------9--------------6------------7--------7-X-77-X--7--------|
A|----777-777--------9--- x4--------6--- x4------7- x8----7-X-77-X--7--------|
E|----------------777-777--------444-444---------5--------5-X-55-X--5--------|	
	Outro             x3
e|------------|------------------|-------------------------------------------|
B|------------|------------------|-------------------------------------------|
G|------------|---99-------------|---99--------------------------------------|
D|-----6----7-|---99----99-----7-|---99----99----7---6---44-4/6---2----------|
A|-----6----7-|---77----99-----7-|---77----99----7---6---44-4/6---2----------|
E|-----4----5-|---------77-----5-|---------77----5---4---22-4/4---0----------|

================================================================================
Добавлено: 05.03.2012
Вам также может быть интересно:
Другие материалы по этой песне:

Страница создана 21.02.2012
http://primanota.ru/jettingham/cheating-chords.htm
Привет, Гость.
Предлагаем пройти революционный курс по гитаре.
Подарок от PrimaNota.Ru, забирай!