PrimaNota.ru - самый крупный в мире бесплатный архив песенных текстов, аккордов, табулатур и нот


Jettblack - Slip It On - таба, видео

Регистрация Запомнить меня
Войти через:  Facebook Google Twitter Vk Yandex Mail.ru

Jettblack - Slip It On - таба, видео

Печатать
Просмотров: 79
-------------------------------------------------------------------------------
                             SONG NAME - Band Name
-------------------------------------------------------------------------------
Tabbed by: Joey_DiVarro
E-mail:

Tuning: half down D#G#C#F#A#d#

Intro:

e|----------------------------------------------------------------------------------------------------|
B|----------------------------------------------------------------------------------------------------|
G|----------------------------------------------------------------------------------------------------|
D|----------------5-------------------------------5-------------------------------5-------------------|
A|------7---5h7---------7---5h7---7-----7---5h7---------7---5h7---7-----7---5h7---------7---5h7---7---|
E|--0-0---0-----0---0-0---0-----0---0-0---0-----0---0-0---0-----0---3-3---3-----3---3-3---3-----3-----|
    * *   *     *   * *   *     *   * *   *     *   * *   *     *   * *   *     *   * *   *     *
e|---------------------------------|
B|---------------------------------|
G|---------------------------------|
D|----------------7p5--------------| X3
A|------7---5h7-------7p6p5--------|
E|--5-5---5-----5-----------7p6p0--|
    * *   *     *  

Verse: 
pt.1 with intro played over the top
e|---------------------------------------------------------------------------|
B|---------------------------------------------------------------------------|
G|----------------------------------------2----------------------------------|
D|--2------------------5------------------2----------------------------------|
A|--2------------------5------------------0----------------------------------|
E|--0------------------3-----------------------------------------------------|

pt.2
e|------------------------------------------------------------------------------------------------------------|
B|------------------------------------------------------------------------------------------------------------|
G|-------------------------------------------------------------------------------------2-2-----2-----2-2-----2|
D|-2-2-----2-----2-2-----2-----2-2-----2-----2-2-----2-----5-5-----5-----5-5-----5-----2-2-----2-----2-2-----2|
A|-2-2-----2-----2-2-----2-----2-2-----2-----2-2-----2-----5-5-----5-----5-5-----5-----0-0-0-0-0-0-0-0-0-0-0-0|
E|-0-0-0-0-0-0-0-0-0-0-0-0-0-0-0-0-0-0-0-0-0-0-0-0-0-0-0-0-3-3-3-3-3-3-3-3-3-3-3-3-3-3------------------------|
        * *   * *     * *   * *     * *   * *     * *   * *     * *   * *     * *   * *     * *   * *     * *
Chorus:

e|-------------------7+-------------------7+------------------------------------------------------------------|
B|---------------------8+-------------------8+----------------------------------------------------------------|
G|--------5--------------8+w------------------8+w\--5-----5-5-----5-----5-5-----7-----7-7-----7-----7-7-------|
D|--2p0---5--------------------7--------------------5-----5-5-----5-----5-5-----7-----7-7-----7-----7-7-------|
A|------2-3--------------------7--------------------3-3-3-3-3-3-3-3-3-3-3-3-3-3-5-5-5-5-5-5-5-5-5-5-5-5-------|
E|-----------------------------5------------------------------------------------------------------------------|
                                                      * *     * *   * *     * *   * *     * *   * *   
e|---------------------------------------------------------------------------|
B|---------------------------------------------------------------------------|
G|---------------------------------------------------------------------------|
D|--2h4p2-----2---------------------------7p5--------------------------------|
A|--------4p2-2-w\---------------------------7p6p5---------------------------|
E|------------0-----------------------------------7p6p0----------------------|
                   Go ahead, slip it on! 

Intro x1

Verse pt.2

Chorus

Bridge:

e|-----------------------------------------------------------------------------------------------------------|
B|-----------------------------------------------------------------------------------------------------------|
G|------------------------------------------55555555555555557777777777777777---------------------------------|
D|--2----------2----------2----------2------55555555555555557777777777777777--2------------------------------|
A|--2----------2----------2----------2------33333333333333335555555555555555--2w\----------------------------|
E|--0----------0----------0----------0----------------------------------------0------------------------------|
                                            ********************************        divebomb here...
Solo:
solo rhythm is verse pt.2 x2

Chorus/Ending:

e|-------------------7+-------------------7+-------------------------------------------------------------|
B|---------------------8+-------------------8+-----------------------------------------------------------|
G|--------5--------------8+w-----------------8+w\---5-----5-5-----5-----5-5-----7-----7-7-----7-----7-7--|
D|--2p0---5--------------------7--------------------5-----5-5-----5-----5-5-----7-----7-7-----7-----7-7--|
A|------2-3--------------------7--------------------3-3-3-3-3-3-3-3-3-3-3-3-3-3-5-5-5-5-5-5-5-5-5-5-5-5--|
E|-----------------------------5-------------------------------------------------------------------------|
                                                      * *     * *   * *     * *   * *     * *   * *
e|------------------------------------------------------------------------------------------------------------|
B|------------------------------------------------------------------------------------------------------------|
G|-9-----9-9-----9-----9-9-----7-----7-7-----7-----7-7-----5-----5-5-----5-----5-5-----7-----7-7-----7-----7-7|
D|-9-----9-9-----9-----9-9-----7-----7-7-----7-----7-7-----5-----5-5-----5-----5-5-----7-----7-7-----7-----7-7|
A|-7-7-7-7-7-7-7-7-7-7-7-7-5-5-5-5-5-5-5-5-5-5-5-5-5-5-3-3-3-3-3-3-3-3-3-3-3-3-3-3-5-5-5-5-5-5-5-5-5-5-5-5-5-5|
E|------------------------------------------------------------------------------------------------------------|

e|----------------------------------------------------------------------------|
B|----------------------------------------------------------------------------|
G|-9--------------------------------------------------------------------------|
D|-9w\-------------7p5----------2--2--2--2--7p5------------2------------------|
A|-7------------------7p6p5-----2--2--2--2-----7p6p5-------2------------------|
E|-------------------------7p6--0--0--0--0----------7p6p50-0------------------|

again a reminder that this was done by ear therefore is will not be 100% 
the lack of the solo tab is due to laziness on my part ;P

please enjoy and please feel free to correct errors 


************************************

| /   slide up
| \   slide down
| h   hammer-on
| p   pull-off
| ~   vibrato
| +   harmonic
| x   Mute note
| b   Bend
| pb  Pre-bend
| br  Bend release
| pbr Pre-bend release
| brb Bend release bend

************************************
Добавлено: 25.05.2016
Вам также может быть интересно:
Другие материалы по этой песне:
  • Аккорды и текст

Страница создана 25.05.2016
http://primanota.ru/jettblack/slip-it-on-chords.htm
Привет, Гость.
Предлагаем пройти революционный курс по гитаре.
Подарок от PrimaNota.Ru, забирай!