PrimaNota.ru - самый крупный в мире бесплатный архив песенных текстов, аккордов, табулатур и нот


Jethro Tull - Thick As A Brick5 - таба, видео

Регистрация Запомнить меня
Войти через:  Facebook Google Twitter Vk Yandex Mail.ru

Jethro Tull - Thick As A Brick5 - таба, видео

Печатать
Просмотров: 52
Message-ID:  1992Jun3.130039.28953@cbnews.cb.att.com>

Date: 3 Jun 92 13:00:39 GMT

Distribution: usa

Organization: AT&T

Lines: 114



Well since nobody else volunteered to post Tull's Thick as a Brick

Edit 1 (or whatever it's called), I decided to figure it out myself.

Only got through the first part in the time I had last night - I'll

probably learn the rest sometime this week and if people let me know

they're interested, I'll post that too.



Couple of notes - there's a capo at the 3rd fret, which is why the

strings at the left of the tab are noted the way they are.

So, what I designated as an open string is actually fretted at

the 3rd fret by the capo.  Secondly, one should use liberal

interpretation of the tab - I wasn't too careful in some of the

chordal sections about specifying exactly which notes of the chord

are hit and which aren't.  As always, use tab as a guide, listen to

it yourself, and make it sound right!



INTRO:



 g:|---------------------------|---------------------------|

 D:|---------------------------|---------------------------|

Bb:|-----2-----2-------0-0-----|-----5-----5-------------0-|

 F:|---0-----0---------0-0-----|---7-----7---------0---0---|

 C:|-0-----4-----0-(2)-2-2-----|-0-----7-----0-(5)---3-----|

 G:|-------------------3-3-----|---------------------------|



 g:|---------------------------|---------------------------|

 D:|---------------------------|---------------------------|

Bb:|-----2-----2-------0-0-----|-----5-----5-----0-----0---|

 F:|---0-----0---------0-0-----|---7-----7-----0-----0-----|

 C:|-0-----4-----0-(2)-2-2-----|-0-----7-----5-----3-------|

 G:|-------------------3-3-----|---------------------------|



VERSE:



     Really don't mind if you sit this one

     My word's but a whisper, your deafness a

     I may make you feel, but I can't make you

     Your sperm's in the gutter, your love's in the



 g:|-2-----------0-------------|---------------------------|

 D:|-3-----------1-------------|---------------------------|

Bb:|-2-----------2-------------|-------0-0-----------------|

 F:|-0-----------2-------------|-------0-0-----------------|

 C:|-------------0-------------|-0-(2)-2-2-----------------|

 G:|---------------------------|-------3-3-----------------|

    ^            ^

    |            |

    ------------------ Just Dmaj and Am chords - listen to the song

                       for the strumming pattern.



     out ...

     shout ...

     think ...

     sink ...                                     G you



 g:|---------------------------|---------------------------|

 D:|---------------------------|---------------------------|

Bb:|-----2-----2-------0-0-----|-----2-----2-------0-0-----|

 F:|---0-----0---------0-0-----|---0-----0---------0-0-----|

 C:|-0-----4-----0-(2)-2-2-----|-0-----4-----0-(2)-2-2-----|

 G:|-------------------3-3-----|-------------------3-3-----|



                 repeat last four bars 4 times, once for each line of verse>





CHORUS:



     ride yourselves over the    field              as you

     make all your animal        deals              and your

     wisemen don't know how it   feels ...



 g:|-3-----------0------0------|-2-0-2-0-2-3-2------2-0----|

 D:|-3-----------2------0------|-3-3-3-3-3-3-3------3-3----|

Bb:|-0-----------2------2------|-2-0-2-0-2-0-2------2-0----|

 F:|-0-----------2------2------|-0-0-0-0-0-0-0------0-0----|

 C:|-2-----------0------0------|---------------------------|

 G:|-3-------------------------|---------------------------|

    ^            ^      ^        ^  ^

    |            |      |        |  |

    ---------------------------------- Just Gmaj, Amaj, and Dmaj chords

                                        with a little variation thrown

                                        in - listen to the song for the

                                        strumming pattern.



                 repeat last two bars 3 times, once for each line of chorus, then>



                                          to be thick as a



 g:|-0-0-0-0-0-0-0---0-0-0--0--|-0-0-0--0------------------|

 D:|-2-0-2-0-2-3-2---2-2-0-(2)-|-2-2-0-(2)-----------------|

Bb:|-2-2-2-2-2-2-2---2-2-2--2--|-2-2-2--2------------------|

 F:|-2-2-2-2-2-2-2---2-2-2--2--|-2-2-2--2------------------|

 C:|-0-0-0-0-0-0-0---0-0-0--0--|-0-0-0--0------------------|

 G:|---------------------------|---------------------------|





BRIDGE:



     brick



 g:|---------------------------|---------------------------|

 D:|---------------------------|---------------------------|

Bb:|-----2-----2-------0-0-----|-----2-----2-------0-0-----|

 F:|---0-----0---------0-0-----|---0-----0---------0-0-----|

 C:|-0-----4-----0-(2)-2-2-----|-0-----4-----0-(2)-2-2-----|

 G:|-------------------3-3-----|-------------------3-3-----|



 g:|---------------------------|---------------------------|

 D:|---------------------------|---------------------------|

Bb:|-----2-----2-------0-0-----|-----2-----2-------0-0-----|

 F:|---0-----0---------0-0-----|---0-----0---------0-0-----|

 C:|-0-----4-----0-(2)-2-2-----|-0-----4-----0-(2)-2-2-----|

 G:|-------------------3-3-----|-------------------3-3-----|



         now go back and do the second verse/chorus the same way>



     
Добавлено: 31.08.2013
Другие материалы по этой песне:
  • Аккорды и текст

Страница создана 31.08.2013
http://primanota.ru/jethro-tull/thick-as-a-brick5-chords.htm
Привет, Гость.
Предлагаем пройти революционный курс по гитаре.
Подарок от PrimaNota.Ru, забирай!