PrimaNota.ru - самый крупный в мире бесплатный архив песенных текстов, аккордов, табулатур и нот


Jethro Tull - Thick As A Brick4 - таба, видео

Регистрация Запомнить меня
Войти через:  Facebook Google Twitter Vk Yandex Mail.ru

Jethro Tull - Thick As A Brick4 - таба, видео

Печатать
Просмотров: 89
		   capo: 3rd fret

emacs tab-learn-tuning

g-|

D-|

Bb|

F-|

C-|

G-|





In the clear white circles of the 

morning wonder

I take my place with the





    clear     white    circles of the



    D                  G

    V   ^  V  ^  V  ^  V  ^  V^V^

g-|--------------------------------|--

D-|--------------------------2-----|--

Bb|--------2--------2--------0-----|--

F-|-----0--------0-----------0-----|--

C-|--0--------4--------0--2--2-----|--

G-|--------------------------3-----|--





     2        2        x  x  x

     3        3        3  3  3

     1        1        0  0  0

     0        4        0  0  0

     x        x        0  2  2

     x        x        0  0  3







lord of the hills



     lord  hills

     D     A

g-|--2-----0--------|--

D-|--3-----2--------|--

Bb|--2-----2--------|--

F-|--0-----2--------|--

C-|--------0--------|--

G-|-----------------|--





With their jock-straps pinching,

they slouch to attention

queueing for sarnies

at the office canteen





     A        A9sus4   rpt 2x   Bb?B?

     V  ^  V  ^  V 

g-|--0--0--0--0--0-----|-----|--0--0--------|--

D-|--2--2--2--0--2-----|-----|--4--5--------|--

Bb|--2--2--2--0--2-----|-----|--4--5--------|--

F-|--2--2--2--0--2-----|-----|--4--5--------|--

C-|--0--0--0--0--0-----|-----|--0--0--------|--

G-|--------------------|-----|--------------|--







bridge - listen to record to get timing/strumming right





     Am                         Em

     V     ^slow V     ^                          rpt

g-|--5-----5-----5-----------|-----0-----------0--|--

D-|--5-----5-----5-----------|-----0-----------0--|--

Bb|--5-----5-----5-----------|-----0-----------0--|--

F-|--7-----7-----7-----------|-----2-----------2--|--

C-|--7-----7-----7-----------|-----2-----0-h2--2--|--

G-|--5-----5-----5-----5-----|-~0--0-----------0--|--



                       1           0     0  0

                                   0     0  0

                                   0     0  0

                                   3     3  3

                                   2     0  2

                                   0     0  0







     Em

g-|--------------------------0--|--

D-|--------------------------0--|--

Bb|--------------------------0--|--

F-|--2-----0--2--------------2--|--

C-|--------------0--2-----0--2--|--

G-|--------------------3-----0--|--







and falls into:



    Em  G  D    A  G  G  Gsus4 G

,.. The legends worded     
Добавлено: 06.11.2013
Другие материалы по этой песне:
  • Аккорды и текст

Страница создана 06.11.2013
http://primanota.ru/jethro-tull/thick-as-a-brick4-chords.htm
Привет, Гость.
Предлагаем пройти революционный курс по гитаре.
Подарок от PrimaNota.Ru, забирай!