PrimaNota.ru - самый крупный в мире бесплатный архив песенных текстов, аккордов, табулатур и нот


Jethro Tull - Thick As A Brick Part II - текст песни, бас-таба, видео

Регистрация Запомнить меня
Войти через:  Facebook Google Twitter Vk Yandex Mail.ru

Jethro Tull - Thick As A Brick Part II - текст песни, бас-таба, видео

Печатать
Просмотров: 134
Уроки эстрадного вокала в Санкт-Петербурге
-----------------------------------------------------------------------------
                   THICK AS A BRICK, PART II - Jethro Tull
-----------------------------------------------------------------------------

Jethro Tull
"Thick as a Brick, Part II"
(Thick as a Brick, 1972)

Tabbed by: crimson-dync
Tuning: Standard


[Note: The "." means silence.]



0:48
   *   *   *   *   *   *
G|-----------------0-------|
D|---0-1-0-1-3-1-3-------0-| (x10)
A|-3-----------------1-3---|
E|-------------------------|

   *   *   *   *   *   *     *   *   *   *   *   *
G|-------------------------|-------------------------|
D|-------------------------|---3-3---3-3-333-333-333-|
A|-.-6-6---6-6-666-666-666-|-.-----------------------|
E|-------------------------|-------------------------|
                                                       (x2)
   *   *   *   *   *   *     *   *   *   *   *   *
G|-------------------------|-------------------------|
D|-55555-55555-3-3-3-6-6-6-|-55555-55555-3-3-3-6-6-6-|
A|-------------------------|-------------------------|
E|-------------------------|-------------------------|

1:24
   *   *   *   *   *   *     *   *   *   *   *   *
G|-------------7\----------|-------------4-----------|
D|-55555-55555---3-5-6-5-3-|-55555-55555---3-5-6-5-3-|
A|-------------------------|-------------------------|
E|-------------------------|-------------------------|

   *   *   *   *   *   *     *   *   *   *   *   *
G|-------------------------|-------------7\----------|
D|-55555-55555---3-5-6-5-3-|-55555-55555---3-5-6-5-3-|
A|-------------5-----------|-------------------------|
E|-------------------------|-------------------------|

   *   *   *   *   *   *     *   *   *   *   *   *
G|-------------------------|-------------------------|
D|-5---\---.---------------|-------------------------|
A|-------------------------|-------------------------|
E|-------------------------|-------------------------|

1:55
   *   *   *   *   *   *     *   *   *   *   *   *
G|-------------7\----------|-------------4-----------|
D|-5-----5-------3-5-6-5-3-|-5-----5-------3-5-6-5-3-|
A|-------------------------|-------------------------|
E|-------------------------|-------------------------|

   *   *   *   *   *   *     *   *   *   *   *   *
G|-------------------------|-------------7\----------|
D|-5-----5-------3-5-6-5-3-|-5-----5-------3-5-6-5-3-|
A|-------------5-----------|-------------------------|
E|-------------------------|-------------------------|

   *   *   *   *   *   *     *   *   *   *   *   *
G|-------------------------|-------------------------|
D|-5---\---.---------------|-------------------------|
A|-------------------------|-------------------------|
E|-------------------------|-------------------------|

2:54
   *   *   *   *   *   *     *   *   *   *   *   *
G|-------------7\----------|-------------4-----------|
D|-5-----5-------3-5-6-5-3-|-5-----5-------3-5-6-5-3-|
A|-------------------------|-------------------------|
E|-------------------------|-------------------------|

   *   *   *   *   *   *     *   *   *   *   *   *
G|-------------------------|-------------------7-\-5-|
D|-5-----5-------3-5-6-5-3-|-5-.-5-5---5-5-5-5-------|
A|-------------------------|-------------------------|
E|-------------------------|-------------------------|

... and continues rambling around these notes.

The same at 3:22 and at 3:43.

4:34
   *   *   *   *   *   *     *   *   *   *   *   *
G|-------------------------|-------------------------|
D|-------------------------|-------------------------| (x2)
A|-.-3-3-1-3-.---3-3-1-3-.-|-.-3-3-1-3-.-----1-------|
E|-------------------------|-------------1-.---------|

5:03
   *   *   *   *   *   *     *   *   *   *   *   *
G|-------------------------|-------------------------|
D|-------------------------|-------------------------| (x2)
A|-.-3-3-1-3-.---3-3-1-3-.-|-.-3-3-1-3-.-----1-------|
E|-------------------------|-------------1-.---------|

5:20
   *   *   *   *   *   *     *   *   *   *   *   *
G|-------------------------|-------------------------|
D|-------------------------|-------------------------| (x2)
A|-.-3-3-1-3-.---3-3-1-3-.-|-.-3-3-1-3-.-----1-------|
E|-------------------------|-------------1-.---------|

   *   *   *   *   *   *     *   *   *   *   *   *
G|-.-5-5---5-----5-5---5---|---5-5---5-----------12--|
D|-------8-----------8-----|-------8---------8-/-----| (x2)
A|-------------------------|-------------8-.---------|
E|-------------------------|-------------------------|

   *   *   *   *   *   *     *   *   *   *   *   *
G|-------------------------|-------------------------|
D|-------------------------|-------------------------| (x2)
A|-------------------------|-------------------------|
E|-------------------------|-------------------------|

5:47
   *   *   *   *   *   *     *   *   *   *   *   *
G|-------------------------|-5-----------------------|
D|-------------------------|-------8-----6-----8---.-|
A|-------------------------|-------------------------|
E|-------------------------|-------------------------|

   *   *   *   *   *   *     *   *   *   *   *   *
G|-------------------------|-5-----------------------|
D|-5-----------------------|-------8-----6-----8---.-|
A|-------------------------|-------------------------|
E|-------------------------|-------------------------|

   *   *   *   *     *   *   *   *
G|-----------------|-----------------|
D|-5---------------|(5)--------------|
A|-----------------|-----------------|
E|-----------------|-----------------|

5:58
   *   *   *   *   *   *     *   *   *   *     *   *   *   *   *   *
G|-------------------------|-----------------|-------------------------|
D|-------------------------|-----------------|-8-----------------------| (x2)
A|-10----/-----------------|-----------7/8---|-------------------------|
E|---------6-------5-----/-|-8-------.-------|-------------------------|

   *   *   *   *   *   *     *   *   *   *     *   *   *   *
G|-------------------------|-----------------|-----------------|
D|-------------------------|-3---------------|(3)--------------|
A|---------1-----/-5-------|-----------------|-----------------|
E|-1-----------------------|-----------------|-----------------|

   *   *   *   *     *   *   *   *     *   *   *   *     *   *   *   *
G|-----------------|-----------------|-------------8---|-7---------------|
D|-.---------2-3---|(3)--3---3-2---/-|-10------.-------|-----10--.-------|
A|-------3-5-------|-----------------|-----------------|-------------10\-|
E|-----------------|-----------------|-----------------|-----------------|

   *   *   *   *     *   *   *   *     *   *   *   *     *   *   *   *
G|-----------------|-------------7---|-----------------|-----------------|
D|-----------------|-----5-----5-----|-5---------------|(5)------.-------|
A|-6-------6-\-3---|-6-------6-------|-----------------|-----------------|
E|-----------------|-----------------|-----------------|-------------6-\-|

6:28
   *   *   *   *
G|-----------------|
D|-----------------|
A|-----------------|
E|-3---------------|

8:01
   *   *   *   *     *   *   *   *     *   *   *   *     *   *   *   *
G|-----------------|-----------------|-----------------|---------5---.---|
D|-5---------------|-----------------|---------7-------|-5---------------|
A|---------5-------|-4-------7-------|-5---------------|-----------------|
E|-----------------|-----------------|-----------------|-----------------|

   *   *   *   *     *   *   *   *     *   *   *   *     *   *   *   *
G|-----------------|-----------------|-----------------|-----------------|
D|-7-------8-------|-.---8-----------|-5---------------|-5---------------|
A|-----8-.---------|---------8-------|---------6-------|---------5---3---|
E|-----------------|-------------8---|-----------------|-----------------|

   *   *   *   *     *   *   *   *     *   *   *   *     *   *   *   *
G|-----------------|---------6-------|---------555-5-.-|-4-.-444-----5-.-|
D|-----5-.-888-8-.-|-7-.-777-----7---|-5-.-5-.---------|---------5-------|
A|-----------------|-----------------|-----------------|-----------------|
E|-6---------------|-----------------|-----------------|-----------------|

   *   *   *   *     *   *   *   *     *   *   *   *     *   *   *   *
G|-----------------|-------------5-.-|-----------------|-----------------|
D|-7-.-----888-8-.-|-----888---------|-5-.-5-.-888-8-.-|-5-.-555-8---7-\-|
A|-----8-.---------|-8-.-----8-------|-----------------|-----------------|
E|-----------------|-----------------|-----------------|-----------------|

8:38
   *   *   *   *     *   *   *   *     *   *   *   *     *   *   *   *
G|-----------------|-----------------|-----------------|-----------------|
D|-----------------|-----------------|-----------------|-----------------|
A|-5---.---5---.---|-5---.---5---.---|-5---.---5---.---|-5---.---5---\---|
E|-3---.---3---.---|-3---.---3---.---|-3---.---3---.---|-3---.---3---\---|

   *   *   *   *     *   *   *   *     *   *   *   *     *   *   *   *
G|-----------------|-----------------|---------8-------|-7---------------|
D|-----------------|-------------7---|-5---------------|---------8---7---|
A|-3---.---3---.---|-3---.---3-----8-|-----------------|-----------------|
E|-1---.---1---.---|-1---.---1-------|-----------------|-----------------|

   *   *   *   *     *   *   *   *     *   *   *   *     *   *   *   *
G|-----------------|-----------------|-----------------|-----------------|
D|-5---------------|-----------------|-----------------|-----------------|
A|-----5-.-5---.---|-5---.---5---.---|-5---.---5---.---|-5---.---5---\---|
E|---------3---.---|-3---.---3---.---|-3---.---3---.---|-3---.---3---\---|

   *   *   *   *     *   *   *   *     *   *   *   *     *   *   *   *
G|-----------------|-----------------|---------8-------|-7---------------|
D|-----------------|-------------7---|-5---------------|---------8---7---|
A|-3---.---3---.---|-3---.---3-----8-|-----------------|-----------------|
E|-1---.---1---.---|-1---.---1-------|-----------------|-----------------|

9:13 (play this 2 times)
   *     *     *     *       *     *     *     *
G|-10-.--------------10----|-------------------------|
D|---------------1010------|---------10108-8-8-8-8-8-|
A|-------8--.--8-----------|-8--.--8-----------------|
E|-------------------------|-------------------------|

   *     *     *     *       *     *     *     *
G|-10-.--------------10----|-------------------------|
D|---------------1010------|---------10108-8-8-8-8-8-|
A|-------8--.--8-----------|-8--.--8-----------------|
E|-------------------------|-------------------------|

   *     *     *     *       *     *     *     *
G|-------------------------|-------------------------|
D|-5--------\--------------|-5-----------------------|
A|-------------6-----------|---------------------3-5-|
E|-------------------------|-------------6-----5-----|

   *     *     *     *       *     *     *     *
G|-------------------------|-------------------------|
D|-5-----------------------|-5-----------------------|
A|-------------6-----------|-------------------------|
E|-------------------------|-------------6-----5-----|

9:48
   *   *   *   *     *   *   *   *     *   *   *   *     *   *   *   *
G|-----------------|-----------------|-----------------|-----------------|
D|-----------------|-----------------|-----------------|-----------------|
A|-5---.---5---.---|-5---.---5---.---|-5---.---5---.---|-5---.---5---\---|
E|-3---.---3---.---|-3---.---3---.---|-3---.---3---.---|-3---.---3---\---|

   *   *   *   *     *   *   *   *     *   *   *   *     *   *   *   *
G|-----------------|-----------------|---------8-------|-7---------------|
D|-----------------|-------------7---|-5---------------|---------8---7---|
A|-3---.---3---.---|-3---.---3-----8-|-----------------|-----------------|
E|-1---.---1---.---|-1---.---1-------|-----------------|-----------------|

   *   *   *   *     *   *   *   *     *   *   *   *     *   *   *   *
G|-----------------|-----------------|-----------------|-----------------|
D|-5---------------|-----------------|-----------------|-----------------|
A|-----5-.-5---.---|-5---.---5---.---|-5---.---5---.---|-5---.---5---\---|
E|---------3---.---|-3---.---3---.---|-3---.---3---.---|-3---.---3---\---|

   *   *   *   *     *   *   *   *     *   *   *   *     *   *   *   *
G|-----------------|-----------------|---------8-------|-7---------------|
D|-----------------|-------------7---|-5---------------|---------8---7---|
A|-3---.---3---.---|-3---.---3-----8-|-----------------|-----------------|
E|-1---.---1---.---|-1---.---1-------|-----------------|-----------------|

10:23 (play this 2 times)
   *     *     *     *       *     *     *     *
G|-10-.--------------10----|-------------------------|
D|---------------1010------|---------10108-8-8-8-8-8-|
A|-------8--.--8-----------|-8--.--8-----------------|
E|-------------------------|-------------------------|

   *     *     *     *       *     *     *     *
G|-10-.--------------10----|-------------------------|
D|---------------1010------|---------10108-8-8-8-8-8-|
A|-------8--.--8-----------|-8--.--8-----------------|
E|-------------------------|-------------------------|

   *     *     *     *       *     *     *     *
G|-------------------------|-------------------------|
D|-5--------\--------------|-5-----------------------|
A|-------------6-----------|---------------------3-5-|
E|-------------------------|-------------6-----5-----|

   *     *     *     *       *     *     *     *
G|-------------------------|-------------------------|
D|-5-----------------------|-5-----------------------|
A|-------------6-----------|-------------------------|
E|-------------------------|-------------6-----5-----|

10:57
   *     *     *     *       *     *     *     *
G|-------------------------|-------------------------|
D|-5--.--5--.--5-5-5-5--.--|-5--.--5-5-5-8-.-8-.-----| (x2)
A|-------------------------|---------------------8-.-|
E|-------------------------|-------------------------|

   *     *     *     *       *     *     *     *
G|-5--.--5--.--5-5-5-5--.--|-5--.--5-5-5-8-8-8-8-.---|
D|-------------------------|-------------------------|
A|-------------------------|----------------------8-.|
E|-------------------------|-------------------------|

   *     *     *     *       *     *     *     *
G|-------------------------|-------------------------|
D|-5--.--5--.--5-5-5-5--.--|-5--.--5-5-5-8-.-8-.-----|
A|-------------------------|---------------------8-.-|
E|-------------------------|-------------------------|

   *     *     *     *       *     *     *     *
G|----------------------7--|---------------------10--|
D|-5--.--5--.--5--.--5-----|-5--.--5-5-5/8-.-.-8-----| (x2)
A|-------------------------|-------------------------|
E|-------------------------|-------------------------|

11:22
   *     *     *     *       *     *     *     *
G|-------------------------|-------------------------|
D|----------------------5--|-------------5--.--5--7--|
A|-3--.--3--.--3--.--3-----|-3--.--3-3-3-------------|
E|-------------------------|-------------------------|

   *     *     *     *       *     *     *     *
G|----------------------7--|---------------------10--|
D|-8--.--5--.--5--.--5-----|-5--.--5-5-5/8-.-.-8-----|
A|-------------------------|-------------------------|
E|-------------------------|-------------------------|

11:30
   *     *     *     *       *     *     *     *
G|-7--.--7-----5-7-8-7--.--|-7-----5-7-5-----10.-----|
D|-------------------------|-------------8-.-----10.-| (x2)
A|-------------------------|-------------------------|
E|-------------------------|-------------------------|

   *     *     *     *       *     *     *     *
G|-------------------------|----------------------5--|
D|-5--.--5-------5-8-5--.--|-5-------5-.-8-8-8-8-----|
A|-------------8-----------|-------8-----------------|
E|-------------------------|-------------------------|

   *     *     *     *       *     *     *     *
G|-7--.--7-----5-7-8-7--.--|-7-----5-7-5---------5-.-|
D|-------------------------|-------------8-.-.-.-----| (x3)
A|-------------------------|-------------------------|
E|-------------------------|-------------------------|

   *     *     *     *       *     *     *     *
G|-------------------------|----------------------5--|
D|-5--.--5-------5-8-5--.--|-5-------5-.-8-8-8-8-----|
A|-------------8-----------|-------8-----------------|
E|-------------------------|-------------------------|

   *     *     *     *       *     *     *     *
G|-7--.--7-----5-7-8-7--.--|-7-----5-7-5---------5-.-|
D|-------------------------|-------------8-.-.-.-----|
A|-------------------------|-------------------------|
E|-------------------------|-------------------------|

12:02
   *     *     *     *       *     *     *     *
G|-------7--.----7-7-7--.--|-7--.----7-----------5-.-|
D|-5--.--------5-----5--.--|-------5-----8-.-8-.-----|
A|-------------------------|-------------------------|
E|-------------------------|-------------------------|

   *     *     *     *       *     *     *     *
G|-------7--.----7---------|-7--.----7-----------5-.-|
D|-5--.--------5-----5--.--|-------5-----8-.-8-.-----|
A|-------------------------|-------------------------|
E|-------------------------|-------------------------|

   *     *     *     *       *     *     *     *
G|-5--.--5--.--------------|-5--.------5-------------|
D|-------------3-5---5--.--|-------3-5------------3--|
A|-------------------------|-------------6-5-6-6-.---|
E|-------------------------|-------------------------|

   *     *     *     *       *     *     *     *
G|-------7--.----7-7-------|-7--.----7-----------5---|
D|-5--.--------5-----5--.--|-------5-----8-----------|
A|-------------------------|-------------------------|
E|-------------------------|-------------------------|

   *     *     *     *       *     *     *     *
G|-------7--.----5-7-7--.--|-7--.----7-----------5---|
D|-5--.--------5-----5--.--|-------5-----8-----------|
A|-------------------------|-------------------------|
E|-------------------------|-------------------------|

   *     *     *     *       *     *     *     *
G|-7--.--7--.------7-7--.--|-7--.----7-7---------5---|
D|-5--.--------5-----5--.--|-------5-----8-----------|
A|-------------------------|-------------------------|
E|-------------------------|-------------------------|

   *     *     *     *       *     *     *     *
G|-7--.--------------12-.--|-5--.------5-------------|
D|-------10-.------10------|-------3-5-----------3---|
A|-------------1010--------|-------------6-----------|
E|-------------------------|-------------------------|

   *     *     *     *       *     *     *     *
G|-------7--.--------12-.--|-7--.----7-7---------5---|
D|-5--.----------1212------|-------5-----8-----8-----|
A|-------------10----------|-------------------------|
E|-------------------------|-------------------------|

12:34
   *     *     *     *       *     *     *     *
G|-------------------------|-------------------------|
D|-5--.--5--.--5-5-5-5--.--|-5--.--5--5--5--5--5--5--|
A|-------------------------|-------------------------|
E|-------------------------|-------------------------|

   *     *     *       *     *     *       *     *
G|-------------------|-------------------|-------------|
D|-------------------|-------------------|-8--8--8--8--|
A|-8---8-8-6---8--.--|-8-----8--6--8--.--|-------------|
E|-------------------|-------------------|-------------|

   *     *     *     *       *     *     *     *
G|-------------------------|-------------------------|
D|-5--.--5--.--5-5-5-5--.--|-5--.--5--5--5--5--5--5--|
A|-------------------------|-------------------------|
E|-------------------------|-------------------------|

   *     *     *       *     *     *
G|-------------------|-------------------|
D|-------------------|-------------------|
A|-8---8-8-6---8--.--|-8-----8--6--8--.--|
E|-------------------|-------------------|

   *     *     *     *       *     *     *     *
G|-------------------------|-------------------------|
D|-------------------------|-------------------------|
A|-----8-8--6--8-----.-----|-------------------------|
E|-8-----------------------|-------------------------|

   *     *     *     *       *     *     *     *
G|-------------------------|-------------------------|
D|-------------------------|-------------------------|
A|-------------------------|-------------------------|
E|-------------------------|-------------------------|

12:56
   *       *       *       *         *       *       *       *
G|---------------------------------|-------------10--------------8---|
D|---------------------------------|-----------10--------------8-----| (x2)
A|-------8-8---6---8---8---8---.---|-8---8---x-------6---6---x-------|
E|-8-------------------------------|---------------------------------|

   *       *       *       *         *       *       *       *
G|---------------------------------|---------------------------------|
D|-------5-5-------5---.-----------|-6---.---------------------------|
A|-------------8-------------------|---------6---.-------------------|
E|-8-------------------------------|-----------------6---6---.-------|

   *       *       *       *         *       *       *       *
G|---------------------------------|---------------------------------|
D|---------------------------------|---------------------------------|
A|-6---.---4---.---3---3---.-------|---------------------------------|
E|---------------------------------|-----------------------------3-6-|

13:11 (play this 2 times)
   *       *       *       *         *       *       *       *
G|---------------------------------|---------------------------------|
D|---------------------------------|-6---\-\-3-------8---\-\-6-------| (x2)
A|-3-----3-3-------3-----------.---|-------------6---------------8---|
E|-------------6-------------------|---------------------------------|

   *       *       *       *         *       *       *       *
G|---------------------------------|-------------8-------------------|
D|---------------------------------|-6---/-/-10--------------5---8---|
A|-8-----8-8---6---8-------8---/---|-----------------6---6-----------|
E|---------------------------------|---------------------------------|

   *       *       *         *       *       *       *
G|-------------------------|---------------------------------|
D|---------4---6---4---.---|---------------------------------|
A|-4---4-------------------|-----------------7-------7---.---|
E|-------------------------|-7-------7---.-------------------|

   *       *       *       *         *       *       *       *
G|---------------------------------|---------------------------------|
D|---------------------------------|---------------------------------|
A|-4---4-4-4---.---4---4-4-4---.---|-------------------------------1-|
E|---------------------------------|-----------------------------3---|

13:47
   *       *       *
G|-------------------------|
D|-------------------------|
A|-3-----3-3-------3---.---|
E|-------------6-----------|

   *       *       *       *         *       *       *       *
G|---------------------------------|-------------10--------------8---|
D|---------------------------------|-----------10--------------8-----| (x2)
A|-------8-8---6---8---8-8-8---.---|-8---8---x-------6---6---x-------|
E|-8-------------------------------|---------------------------------|

   *       *       *       *         *       *       *       *
G|---------------------------------|---------------------------------|
D|-------5-5-------5---.-----------|-6---.---------------------------|
A|-------------8-------------------|---------6---.-------------------|
E|-8-------------------------------|-----------------6---6---.-------|

   *       *       *       *         *       *
G|---------------------------------|-------------|
D|---------------------------------|-7---7---.---|
A|-6---.---4---.---3---3---.-------|-------------|
E|---------------------------------|-------------|

14:02
   *       *       *       *         *       *       *       *
G|---------------------------------|-------------7---------------7---|
D|-------------7---------------7---|-5---5-5-5-------5---5-5-5-------|
A|-5---5-5-5-------5---5-5-5-------|---------------------------------|
E|---------------------------------|---------------------------------|
 |               (x4)              |               (x2)              |

   *       *       *       *         *       *       *       *
G|---------------------------------|-------------7---------------7---|
D|-------------7---------------7---|-5---5-5-5-------5---5-5-5-------|
A|-5---5-5-5-------5---5-5-5-------|---------------------------------|
E|---------------------------------|---------------------------------|
 |               (x2)              |               (x2)              |

14:20 (play this 2 times)
   *       *       *       *         *       *       *       *
G|-5---5-5-5---.---5---5-5-5---.---|---------------------------------|
D|---------------------------------|-8---8-8-8---.---6---6-6-6---.---|
A|---------------------------------|---------------------------------|
E|---------------------------------|---------------------------------|

   *       *       *       *         *       *       *       *
G|-5---5-5-5---.---5---5-5-5---.---|---------------------------------|
D|---------------------------------|-7---7-7-7---5---5h7-7-7-7---.---|
A|---------------------------------|---------------------------------|
E|---------------------------------|---------------------------------|

14:34
   *       *       *       *       *        *       *       *
G|----------------------------------------|--------------------------|
D|----------------------------------------|--------------------------|
A|-7-----7-7-------0---5---.--------------|-7-----7-7-------0---5----|
E|-------------7--------------------------|-------------7------------|

   *       *       *     *       *         *       *
G|---------------------|-----------------|-------------|
D|---------------------|-----------------|-------------|
A|-3-3-3-3-3---.---.---|-3-3-3-3-3---.---|-3-3-3-3-3---|
E|---------------------|-----------------|-------------|

   *       *       *       *       *        *       *       *
G|----------------------------------------|--------------------------|
D|----------------------------------------|--------------------------|
A|-7-----7-7-------0---5---.--------------|-7-----7-7-------0---5----|
E|-------------7--------------------------|-------------7------------|

   *       *       *     *       *         *       *
G|---------------------|-----------------|-------------|
D|---------------------|-----------------|-7-7-7-7-7---|
A|-3-3-3-3-3---.---.---|-3-3-3-3-3---.---|-------------|
E|---------------------|-----------------|-------------|

14:47
   *       *       *       *         *       *       *       *
G|---------------------------------|-------------5---------------5---|
D|-------------7---------------7---|-3---3-3-3-------3---3-3-3-------|
A|-5---5-5-5-------5---5-5-5-------|---------------------------------|
E|---------------------------------|---------------------------------|
 |               (x3)              |

   *       *       *       *         *       *       *       *
G|---------------------------------|---------------------------------|
D|---------------------------------|-------------7---------------7---|
A|-6-----5---------3---3---3---3---|-5---5-5-5-------5---5-5-5-------|
E|-------------6-------------------|---------------------------------|
                                   |               (x2)              |

   *       *       *       *         *       *       *       *
G|-------------5---------------5---|---------------------------------|
D|-3---3-3-3-------3---3-3-3-------|---------------------------------|
A|---------------------------------|-6-----5---------3---3---3---3---|
E|---------------------------------|-------------6-------------------|

   *       *       *       *         *   *   *   *     *   *   *   *
G|---------------------------------|-----------------|-----------------|
D|-------------7---------------7---|-----------------|-----------------|
A|-5---5-5-5-------5---5-5-5-------|-5-.-------------|-----------------|
E|---------------------------------|-----------------|-----------------|

15:09
   *       *       *       *         *   *   *   *     *   *   *   *
G|---------------------------------|-----------------|-----------------|
D|-----------5-.-------------5-.---|-----------------|-----------------|
A|-3---3-3-3-------3---3-3-3-------|-5-.-------------|-----------------|
E|---------------------------------|-----------------|-----------------|
 |               (x2)              |

   *       *       *       *         *   *   *   *     *   *   *   *
G|---------------------------------|-----------------|-----------------|
D|-----------5-.-------------5-.---|-----------------|-----------------|
A|-3---3-3-3-------3---3-3-3-------|-5-.-------------|-----------------|
E|---------------------------------|-----------------|-----------------|
 |               (x2)              |                 |      (x3)       |

15:26
   *       *       *       *         *   *   *   *
G|---------------------------------|-----------------|
D|-----------5-.-------------5-.---|-----------------|
A|-4---4-4-4-------4---4-4-4-------|-5-.-------------|
E|---------------------------------|-----------------|

   *       *       *       *         *       *       *       *
G|-----------9-.-------------9-.---|---------------------------------|
D|-7-7-7-7-7-------7-7-7-7-7-------|-----------5-.-------------5-.---|
A|---------------------------------|-3-3-3-3-3-------3-3-3-3-3-------|
E|---------------------------------|---------------------------------|

   *       *       *
G|-------------------------|
D|-------------------------|
A|-5---.-------------------|
E|-------------------------|

15:35
   *       *       *       *         *       *       *       *
G|---------------------------------|---------------------------------|
D|---------------------------------|---5-----5-----5-5---3-----------|
A|-5---.---5---.---5---.---5---.---|-5-------------------------------|
E|---------------------------------|-------------------------3-/-6---|

   *       *       *       *         *       *       *       *
G|---------------------------------|---------------------------------|
D|---------------------------------|---5-----5-----5-5---3-----------|
A|-3---.---3---.---3---.---3---.---|-3-------------------------------|
E|---------------------------------|-------------------------3-/-8---|

   *       *       *       *         *       *       *       *
G|---------------------------------|---------------------------------|
D|---------------------------------|---5-----5-----5-5---3-----------|
A|-5---.---5---.---5---.---5---.---|-5-------------------------------|
E|---------------------------------|-------------------------3-/-6---|

   *       *       *       *         *       *       *       *       *
G|---------------------------------|-------------------------------------5---|
D|---------------------------------|---5-----5-------5---8---7-------7-------|
A|-3---.---3---.---3---.---3---.---|-3-------------6---------------8---------|
E|---------------------------------|-----------------------------------------|

   *       *       *       *       *
G|-------------7---5-----5-5---------------|
D|-8-------8-------------------8-----------|
A|-------8-------------------------5-/-8---|
E|-----------------------------------------|

15:53
   *       *       *       *         *       *       *       *
G|---------------------------------|---5-----5-----5-5---------------|
D|-5---.---5---.---5---.---5---.---|-5-------------------8-----------|
A|---------------------------------|-------------------------3-/-5---|
E|---------------------------------|---------------------------------|

   *       *       *       *         *       *       *       *
G|---------------------------------|---5-----5-----5-5---------------|
D|---------------------------------|---------------------8-----------|
A|-8---.---8---.---8---.---8---.---|-8-----------------------5-/-8---|
E|---------------------------------|---------------------------------|

   *       *       *       *         *       *       *       *
G|---------------------------------|---5-----5-----5-5---------------|
D|-5---.---5---.---5---.---5---.---|-5-------------------8-----------|
A|---------------------------------|-------------------------3-/-5---|
E|---------------------------------|---------------------------------|

   *       *       *       *         *       *       *       *       *
G|---------------------------------|---5-----5-----5-5-------5---.-----------|
D|---------------------------------|---------------------8-------------------|
A|-8---.---8---.---8---.---8---.---|-8-------------------------------------1-|
E|---------------------------------|-------------------------------------3---|

16:08
   *       *       *       *         *       *       *       *
G|---------------------------------|---------------------------------|
D|---------------------------------|---------------------------------|
A|-3-----3-3-------3-----------.---|---------------------------------|
E|-------------6-------------------|---------------------------------|

   *       *       *       *         *       *       *       *
G|---------------------------------|---------------------------------|
D|---------------------------------|-6---\-\-3-------8---\-\-6-------|
A|-3-----3-3-------3-------3---.---|-------------6---------------8---|
E|-------------6-------------------|---------------------------------|

   *       *       *       *         *       *       *       *
G|---------------------------------|-------------8-------------------|
D|---------------------------------|-6---/-/-10--------------5---8---|
A|-8-----8-8---6---8-------8---/---|-----------------6---6-----------|
E|---------------------------------|---------------------------------|

   *       *       *         *       *       *       *
G|-------------------------|---------------------------------|
D|---------4---6---4---.---|---------------------------------|
A|-4---4-------------------|-----------------7-------7---.---|
E|-------------------------|-7-------7---.-------------------|

   *       *       *       *         *       *       *       *
G|---------------------------------|---------------------------------|
D|---------------------------------|---------------------------------|
A|-4---4-4-4---.---4---4-4-4---.---|-------------------------------1-|
E|---------------------------------|-----------------------------3---|

16:26
   *       *       *       *         *       *       *       *
G|---------------------------------|---------------------------------|
D|---------------------------------|-6---\-\-3-------8---\-\-6-------|
A|-3-----3-3-------3-------3---.---|-------------6---------------8---|
E|-------------6-------------------|---------------------------------|

   *       *       *       *         *       *       *       *
G|---------------------------------|---------------------------------|
D|---------------------------------|-6---\-\-3-------8---\-\-6-------|
A|-3-----3-3-------3-----------3---|-------------6---------------8---|
E|-------------6-------------------|---------------------------------|

   *       *       *       *         *       *       *       *
G|---------------------------------|-------------8-------------------|
D|---------------------------------|-6---/-/-10--------------5---8---|
A|-8-----8-8---6---8-------8---/---|-----------------6---6-----------|
E|---------------------------------|---------------------------------|

   *       *       *         *       *       *       *
G|-------------------------|---------------------------------|
D|---------4---6---4---.---|---------------------------------|
A|-4---4-------------------|-----------------7-------7---.---|
E|-------------------------|-7-------7---.-------------------|

   *       *       *       *         *       *       *       *
G|---------------------------------|---------------------------------|
D|---------------------------------|---------------------------------|
A|-4---4-4-4---.---4---4-4-4---.---|-------------------------------1-|
E|---------------------------------|-----------------------------3---|

16:44
   *       *       *
G|-------------------------|
D|-------------------------|
A|-3-----3-3-------3---.---|
E|-------------6-----------|

   *       *       *       *         *       *       *       *
G|---------------------------------|-------------10--------------8---|
D|---------------------------------|-----------10--------------8-----| (x2)
A|-------8-8---6---8---8-8-8---.---|-8---8---x-------6---6---x-------|
E|-8-------------------------------|---------------------------------|

   *       *       *       *         *       *       *       *
G|---------------------------------|---------------------------------|
D|-------5-5-------5---.-----------|-6---.---------------------------|
A|-------------8-------------------|---------6---.-------------------|
E|-8-------------------------------|-----------------6---6---.-------|

   *       *       *       *         *       *       *       *       *
G|---------------------------------|-------------------------------------|
D|---------------------------------|-------------------------------------|
A|-6---.---4---.---3---3---.-------|-------------------------------------|
E|---------------------------------|-5---5---5-5-5---.---5---5---.---.---|

17:00
   *       *       *       *       *        *       *       *
G|----------------------------------------|--------------------------|
D|----------------------------------------|--------------------------|
A|-7-----7-7-------0---5---.--------------|-7-----7-7-------0---5----|
E|-------------7--------------------------|-------------7------------|

   *       *       *     *       *         *       *
G|---------------------|-----------------|-------------|
D|---------------------|-----------------|-------------|
A|-3-3-3-3-3---.---.---|-3-3-3-3-3---.---|-3-3-3-3-3---|
E|---------------------|-----------------|-------------|

   *       *       *       *       *        *       *       *
G|----------------------------------------|--------------------------|
D|----------------------------------------|--------------------------|
A|-7-----7-7-------0---5---.--------------|-7-----7-7-------0---5----|
E|-------------7--------------------------|-------------7------------|

   *       *       *     *       *         *       *
G|---------------------|-----------------|-------------|
D|---------------------|-----------------|-7-7-7-7-7---|
A|-3-3-3-3-3---.---.---|-3-3-3-3-3---.---|-------------|
E|---------------------|-----------------|-------------|

17:13
   *       *       *       *         *       *       *       *
G|---------------------------------|-------------5---------------5---|
D|-------------7---------------7---|-3---3-3-3-------3---3-3-3-------|
A|-5---5-5-5-------5---5-5-5-------|---------------------------------|
E|---------------------------------|---------------------------------|
 |               (x3)              |

   *       *       *       *         *       *       *       *
G|---------------------------------|---------------------------------|
D|---------------------------------|-------------7---------------7---|
A|-6-----5---------3---3---3---3---|-5---5-5-5-------5---5-5-5-------|
E|-------------6-------------------|---------------------------------|
                                   |               (x2)              |

   *       *       *       *         *       *       *       *
G|-------------5---------------5---|---------------------------------|
D|-3---3-3-3-------3---3-3-3-------|---------------------------------|
A|---------------------------------|-6-----5---------3---3---3---3---|
E|---------------------------------|-------------6-------------------|

   *       *       *       *
G|---------------------------------|
D|-------------7---------------7---|
A|-5---5-5-5-------5---5-5-5-------|
E|---------------------------------|

17:31
   *       *       *       *         *       *       *       *
G|---------------------------------|-------------5---------------5---|
D|-------------7---------------7---|-3---3-3-3-------3---3-3-3-------|
A|-5---5-5-5-------5---5-5-5-------|---------------------------------|
E|---------------------------------|---------------------------------|

   *       *       *       *         *       *       *       *
G|---------------------------------|---------------------------------|
D|---------------------------------|-------------7---------------7---|
A|-6-----5---------3---3---3---3---|-5---5-5-5-------5---5-5-5-------|
E|-------------6-------------------|---------------------------------|
                                   |               (x2)              |

   *       *       *       *         *       *       *       *
G|-------------5---------------5---|---------------------------------|
D|-3---3-3-3-------3---3-3-3-------|---------------------------------|
A|---------------------------------|-6-----5---------3---3---3---3---|
E|---------------------------------|-------------6-------------------|

   *       *       *       *         *   *   *   *     *   *   *   *
G|---------------------------------|-----------------|-----------------|
D|-------------7---------------7---|-----------------|-----------------|
A|-5---5-5-5-------5---5-5-5-------|-5-.-------------|-----------------|
E|---------------------------------|-----------------|-----------------|
 |              (x2)               |

   *       *       *       *         *   *   *   *     *   *   *   *
G|---------------------------------|-----------------|-----------------|
D|-----------5-.-------------5-.---|-----------------|-----------------|
A|-3---3-3-3-------3---3-3-3-------|-5-.-------------|-----------------|
E|---------------------------------|-----------------|-----------------|
 |              (x2)               |

   *       *       *       *         *       *       *       *       *
G|---------------------------------|-----------------------------------------|
D|-----------5-.-------------5-.---|-----------5-.---------------------------|
A|-3---3-3-3-------3---3-3-3-------|-3---3-3-3-------3---3-3-.---.-----------|
E|---------------------------------|---------------------------------5---\---|

18:01
   *   *   *   *     *   *   *   *     *   *   *   *     *   *   *   *
G|-----------------|-----------------|-----------------|---------------5-|
D|-----------------|-----------------|-----------------|-------5-7-5-----|
A|-6-.-6-6-6-.-----|---------5-----8-|-------------8-8-|-8-.-8-------8---|
E|-------------6-6-|-6-.-6-8---8-6---|-6-.-6-6-6-.-----|-----------------|
                                                                          (x3)
   *   *   *   *     *   *   *   *     *   *   *   *     *   *   *   *
G|-----------------|-----------------|-----------------|-----------------|
D|-------------5-5-|-5-.-5-7-8-7-5---|-----------------|-----10--.-8-7---|
A|-6-.-6-6-6/8-----|---------------5-|-------------8-8-|-8-------------8-|
E|-----------------|-----------------|-8-.-8-8-8-.-----|-----------------|

   *   *   *   *     *   *   *   *
G|-----------------|-----------------|
D|-----------------|-----10--.-8-7---|
A|-8-.-8-8-8-.-8-8-|-8-------------8-|
E|-----------------|-----------------|

18:35
   *   *   *   *     *   *   *   *     *   *   *   *     *   *   *   *
G|-----------------|-----------------|-----------------|-----------------|
D|-----------------|-----------------|-----------10----|-----------8-----|
A|-8-.-8-8-8---8---|-----------------|-8-.-8-8---------|-6-.-6-6---------|
E|-----------------|-6-8-8-6-8---8-.-|-----------------|-----------------|

   *   *   *   *     *   *   *   *     *   *   *   *     *   *   *   *
G|-----------------|-----------------|-------------10--|-------------8---|
D|-----------------|-----------------|-----------10----|-----------8-----|
A|-8-.-8-8-8---8---|-----------------|-8-.-8-8---------|-6-.-6-6---------|
E|-----------------|-6-8-8-6-8---8-.-|-----------------|-----------------|

   *   *   *   *     *   *   *   *     *   *   *   *     *   *   *   *
G|-----------------|-0---------------|-----------------|-----------0-----|
D|---0-1-0-1-3-1-3-|-------0-------0-|-1-0-1-3---0---0-|-1-0-1-3-1-----0-|(x2)
A|-3---------------|---1-3---3-1-3---|---------1---3---|-------------1---|
E|-----------------|-----------------|-----------------|-----------------|

18:55
   *   *   *   *     *   *   *   *     *   *   *   *     *   *   *   *
G|-----------------|-----------------|-----------------|---------------5-|
D|-----------------|-----------------|-----------------|-------5-7-5-----|
A|-6-.-6-6-6-.-----|---------5-----8-|-------------8-8-|-8-.-8-------8---|
E|-------------6-6-|-6-.-6-8---8-6---|-6-.-6-6-6-.-----|-----------------|
                                                                          (x2)
   *   *   *   *     *   *   *   *     *   *   *   *     *   *   *   *
G|-----------------|-----------------|-----------------|-----------------|
D|-------------5-5-|-5-.-5-7-8-7-5---|-----------------|-----10--.-8-7---|
A|-6-.-6-6-6/8-----|---------------5-|-------------8-8-|-8-------------8-|
E|-----------------|-----------------|-8-.-8-8-8-.-----|-----------------|

   *   *   *   *     *   *   *   *
G|-----------------|-----------------|
D|-----------------|-----10--.-8-7---| (x3)
A|-8-.-8-8-8-.-8-8-|-8-------------8-|
E|-----------------|-----------------|

19:24
   *   *   *   *     *   *   *   *
G|-----------------|-----5---.-------|
D|-5-.-5-5-5-.-5-5-|-5---------8-7---| (x4)
A|-----------------|---------------8-|
E|-----------------|-----------------|

   *   *   *   *     *   *   *   *     *   *   *   *     *   *   *   *
G|-----------------|-----------------|-----------------|-----------------|
D|-----------------|-----5-----3-----|-----------------|-----7-----5-4---|
A|-3-.-3-3-3-.-3-3-|-3-----------5-3-|-5-.-5-5-5-.-5-5-|-5-------------5-|
E|-----------------|-----------------|-----------------|-----------------|

   *   *   *   *     *   *   *   *     *   *   *   *     *   *   *   *
G|-----------------|-----------------|-----------------|-----7---5-------|
D|-----------------|-----10----8-7---|-5-.-5-5-5-.-5-5-|-5---------5---.-|
A|-8-.-8-8-8-.-8-8-|-8-------------8-|-----------------|-----------------|
E|-----------------|-----------------|-----------------|-----------------|

19:45
   *   *   *   *   *   *
G|-----------------0-------|
D|---0-1-0-1-3-1-3-------0-| (x2)
A|-3-----------------1-3---|
E|-------------------------|

   *   *   *     *     *     *     *       *     *     *     *
G|-------------|-------------------------|-------------------------|
D|---0-1-0-1-3-|-3-----------------------|-------------------------| (x3)
A|-3-----------|-------------3-----------|-5-----------------------|
E|-------------|-------------------------|-------------6-----------|

20:05
   *   *   *   *   *   *
G|-----------------0-------|
D|---0-1-0-1-3-1-3-------0-| (x10)
A|-3-----------------1-3---|
E|-------------------------|

20:25
   *     *     *     *       *     *     *     *     *     *     *
G|---------------------4-5-|-------5-6-8-----|-5-----5-----------------|
D|-------4-6-7-----4-7-----|-4-6-7-------7-8-|-------------8-----.-----|
A|-3-5-6-------6-7---------|-----------------|-------------------------|
E|-------------------------|-----------------|-------------------------|



Buenos Aires. May, 2015.

soldync@yahoo.com.ar
Добавлено: 26.09.2015
Другие материалы по этой песне:
  • Аккорды и текст

Страница создана 03.08.2014
http://primanota.ru/jethro-tull/thick-as-a-brick-part-ii-chords.htm
Привет, Гость.
Предлагаем пройти революционный курс по гитаре.
Подарок от PrimaNota.Ru, забирай!