PrimaNota.ru - самый крупный в мире бесплатный архив песенных текстов, аккордов, табулатур и нот


Jethro Tull - Thick As A Brick Part I - бас-таба, видео

Регистрация Запомнить меня
Войти через:  Facebook Google Twitter Vk Yandex Mail.ru

Jethro Tull - Thick As A Brick Part I - бас-таба, видео

Печатать
Просмотров: 85
-----------------------------------------------------------------------------
                   THICK AS A BRICK, PART I - Jethro Tull
-----------------------------------------------------------------------------

Jethro Tull
"Thick as a Brick, Part I"
(Thick as a Brick, 1972)

Tabbed by: crimson-dync
Tuning: Standard


[Note: The "." means silence.]



0:15
   *     *     *     *       *     *
G|-------------------------|-------------|
D|-------------------------|-------------|
A|-------------------------|-------------|
E|-------------------------|-------------|

   *     *     *     *       *     *     *     *
G|-------------------------|-------------------------|
D|-------------------------|-------------------------|
A|-----8-.-----5-----------|-8-----7-----5-----------|
E|-----------------6-6-.---|-----------------6-6-.---|

0:55
   *     *     *     *       *     *     *     *
G|-------------------------|-------------------------|
D|-------------------------|-------------------------|
A|-------------------------|-------------------------|
E|-------------------------|-------------------------|

   *     *     *     *       *     *     *     *
G|-------------------------|-------------------------|
D|-------------------------|-------------------------|
A|-8-----7-----5-----------|-8-----7-----5-----------|
E|-----------------6-6-.---|-----------------6-6-.---|

1:04
   *     *     *     *       *     *
G|-------------------------|-------------|
D|-------------------------|-------------|
A|-------------------------|-------------|
E|-------------------------|-------------|
                                                       (x4)
   *     *     *     *       *     *     *     *
G|-------------------------|-------------------------|
D|-------------------------|-------------------------|
A|-8-----7-----5-----------|-8-----7-----5-----------|
E|-----------------6-6-.---|-----------------6-6-.---|

1:34
   *     *     *     *       *     *     *     *
G|-------------------------|-------------------------|
D|-------------------------|---------------5---------| (x3)
A|-------------------------|-8-.---8-.---8---8-------|
E|-6-------5h6-8-------8---|-----8-----8-------------|

   *     *     *     *       *     *     *     *
G|-------------------------|-------------------------|
D|-------------------------|-------------------------|
A|-3-.---3-.---3-5-3-------|-3-----------.-----------|
E|-----3-----3-------------|-------------------------|

3:00
   *   *   *   *   *     *   *   *   *   *   
G|---------------------|---------------------|
D|---------------------|---------------------|
A|-----------------1---|-----------------1---|
E|-------------1-------|-------------1-------|

   *   *   *   *   *     *   *   *   *   *
G|---------------------|---------------------|
D|-----------3---5-----|-----------3---5-----| (x5)
A|-3-5-6-5-6---6-----5-|-3-5-6-5-6---6-----5-|
E|-----------------6---|-----------------6---|

3:22
   *   *   *   *   *     *   *   *   *   *   
G|---------------------|---------------------|
D|---------------------|---------------------|
A|-.-6-6---6---6---6---|-.-8-8---8---8---8---|
E|---------------------|---------------------|

   *   *   *   *   *     *   *   *   *   *
G|---------------------|---------------------|
D|-5-5-5-5-5-5-6---6---|-5-5-5-5-5-5-5-5-5-5-|
A|---------------------|---------------------|
E|---------------------|---------------------|

   *   *   *   *   *     *   *   *   *   *
G|---------------------|---------------------|
D|---------------------|---------------------|
A|-.-6-6---6---6---6---|-.-8-8---8---8---8---|
E|---------------------|---------------------|

   *   *   *   *   *     *   *   *   *   *
G|---------------------|---------------------|
D|-5-5-5-3-.-------5-\-|-3-3-3-1-.-------3-\-|
A|-----------3-3-------|-----------1-1-------|
E|---------------------|---------------------|

   *   *   *   *   *     *   *   *   *   *
G|---------------------|---------------------|
D|---------------------|-----------------5\3-|
A|-6-6-6-4-.-------6---|-4-4-4-4-4-4-4-4-----|
E|-----------4-4-------|---------------------|

3:43
   *   *   *   *   *     *   *   *   *   *
G|---------------------|---------------------|
D|-----------3---5-----|-----------3---5-----| (x6)
A|-3-5-6-5-6---6-----5-|-3-5-6-5-6---6-----5-|
E|-----------------6---|-----------------6---|

   *   *   *   *   *
G|---------------------|
D|-----------3---5-----|
A|-3-5-6-5-6---6-----5-|
E|-----------------6---|

4:04
   *   *   *   *   *     *   *   *   *   *
G|---------------------|---------------------|
D|-------------7-------|-7---7-9-7-9-109-7---| (x2)
A|-8-7-8-108-10--108-7-|---10--------------10|
E|---------------------|---------------------|

   *   *   *   *   *     *   *   *   *   *
G|-------7---7-9-7-----|---------------------|
D|-109-10--10------109-|---------------------|
A|---------------------|-7---7-8-7-8-108-7---|
E|---------------------|---10--------------10|

   *   *   *   *   *     *   *   *   *   *
G|-------7---7-9-7-----|---------------------|
D|-109-10--10------109-|-----------------7-.-|
A|---------------------|-1010101010101010----|
E|---------------------|---------------------|

4:22
   *   *   *   *     *   *   *   *     *   *   *   *
G|-----------------|-----------------|-----------------|
D|-----------------|-----------------|-----------------|
A|-----------------|-----------------|-3---.-----------|
E|-6-----6-6---.---|-1-----1-1---.---|-----------------|

4:35
   *   *   *   *   *     *   *   *   *   *   
G|---------------------|---------------------|
D|---------------------|---------------------|
A|-----------------1---|-.---------------1---|
E|-------------1-------|-------------1-------|

   *   *   *   *   *     *   *   *   *   *
G|---------------------|---------------------|
D|---------------------|---------------------|
A|-.-6-6---6-6-666-666-|-.-8-8---8-8-888-888-|
E|---------------------|---------------------|

   *   *   *   *   *     *   *   *   *   *   
G|---------------------|---------------------|
D|-55555-55555-----6-6-|-55555-55555-555-555-|
A|-------------8-8-----|---------------------|
E|---------------------|---------------------|

   *   *   *   *   *     *   *   *   *   *
G|---------------------|---------------------|
D|---------------------|---------------------|
A|-.-6-6---6-6-666-666-|-.-8-8---8-8-888-888-|
E|---------------------|---------------------|

   *   *   *   *   *     *   *   *   *   *   
G|---------------------|---------------------|
D|-55555-55555-----6-6-|-55555-55555-----6-6-| (x2)
A|-------------8-8-----|-------------8-8-----|
E|---------------------|---------------------|

4:58
   *   *   *   *     *   *   *   *     *   *   *   *     *   *   *   *
G|-----------------|-----------------|-----------------|-----------------|
D|-6---------------|(6)--------------|-----------------|-----------------|
A|-----------------|-----------------|-----------------|-----------------|
E|-----------------|-----------------|-----------------|---------10--\---|

   *   *   *   *     *   *   *   *     *   *   *   *     *   *   *   *
G|-----------------|-----------------|-----------------|-----------------|
D|-----------------|-----------------|-----------------|-----------------|
A|-----------------|-----------------|-----------------|-----------------|
E|-3---------------|(3)------10--\---|-3---------------|(3)--------------|

   *   *   *   *     *   *   *   *     *   *   *   *     *   *   *   *
G|-----------------|-----------------|-----------------|-----------------|
D|-----------------|-----------------|-----------------|-----------------|
A|-10--------------|(10)-----8-------|-10--------------|(10)-----8-------|
E|-----------------|-----------------|-----------------|-----------------|

   *   *   *   *     *   *   *   *     *   *   *   *     *   *   *   *
G|-----------------|-----------------|-----------------|-----------------|
D|-----------------|-----------------|-----------------|-----------------|
A|-----------------|-----------------|-----------------|-----------------|
E|-6---------------|(6)------6-------|-8---------------|(8)------8-------|

5:21
   *   *   *   *     *   *   *   *     *   *   *   *     *   *   *   *
G|-----------------|-----------------|-----------------|-----------------|
D|-----------------|-----------------|-----------------|-----------------|
A|-----------------|-----------------|-----------------|-----------------|
E|-8---------------|(8)------8-------|-10--------------|(10)-----10------|

   *   *   *   *     *   *   *   *     *   *   *   *     *   *   *   *
G|-----------------|-----------------|-----------------|-----------------|
D|-----------------|-----------------|-----------------|-----------------|
A|-8---------------|(8)------8-------|-10----------8---|-10------8-------|
E|-----------------|-----------------|-----------------|-----------------|

   *   *   *   *     *   *   *   *     *   *   *   *     *   *   *   *
G|-----------------|-----------------|-----------------|-----------------|
D|-----------------|-----------------|-----------------|-----------------|
A|-----------------|-----------------|-5---------------|-5---5-5-5---.---|
E|-6-----------.---|-8-----------.---|-----------------|-----------------|

5:38
   *   *   *   *     *   *   *   *     *   *   *   *     *   *   *   *
G|-----------------|-----------------|-----------------|-----------------|
D|-----------------|-----------------|-----------------|-----------------|
A|-10------10------|-10--10--8---8---|-10--10--10--10--|-10--.---8---.---|
E|-----------------|-----------------|-----------------|-----------------|

   *   *   *   *     *   *   *   *     *   *   *   *     *   *   *   *
G|-----------------|-----------------|-----------------|-----------------|
D|-----------------|-----------------|-----------------|-----------------|
A|-----------------|-----------------|-----------------|-----------------|
E|-6---6-6-6---6-6-|-6---6---6---.---|-8---8-8-8---8-8-|-8---.---8-------|

   *   *   *   *     *   *   *   *     *   *   *   *     *   *   *   *
G|-----------------|-----------------|-----------------|-----------------|
D|-----------------|-----------------|-----------------|-----------------|
A|-----------------|-----------------|-5---5-5-5---5-5-|-5---5-5-5---.---|
E|-8---8-8-8---8-8-|-8---8-8-8---.---|-----------------|-----------------|

   *   *   *   *     *   *   *   *     *   *   *   *     *   *   *   *
G|-----------------|-----------------|-----------------|-----------------|
D|-----------------|-----------------|-----------------|-----------------|
A|-8---8-8-8---8-8-|-8---8-8-8---8-8-|-10------.---8---|-10------8---.---|
E|-----------------|-----------------|-----------------|-----------------|

   *   *   *   *     *   *   *   *     *   *   *   *     *   *   *   *
G|-----------------|-----------------|-----------------|-----------------|
D|-----------------|-----------------|-----------------|-----------------|
A|-----------------|-----------------|-5---5-5-5---5-5-|-5---5-5-5---5---|
E|-6---6---6-/-10--|-8---------------|-----------------|-----------------|

6:18
   *   *   *   *     *   *   *   *     *   *   *   *     *   *   *   *
G|-----------------|-----------------|-----------------|-----------------|
D|-----------------|-----------------|-----------------|-----------------|
A|-10--------------|(10)-----8-------|-10--------------|(10)-----10------|
E|-----------------|-----------------|-----------------|-----------------|

   *   *   *   *     *   *   *   *     *   *   *   *     *   *   *   *
G|-----------------|-----------------|-----------------|-----------------|
D|-----------------|-----------------|-----------------|-----------------|
A|-8---------------|(8)------8-------|-----------------|-----------------|
E|-----------------|-----------------|-8---------------|-10--------------|

   *   *   *   *     *   *   *   *     *   *   *   *     *   *   *   *
G|-----------------|-----------------|-----------------|-----------------|
D|-----------------|-----------------|-----------------|-----------------|
A|-10--------------|(10)-----8-------|-10--------------|(10)-----10------|
E|-----------------|-----------------|-----------------|-----------------|

   *   *   *   *     *   *   *   *     *   *   *   *     *   *   *   *
G|-----------------|-----------------|-----------------|-----------------|
D|-----------------|-----------------|-----------------|-----------------|
A|-8---------------|-6---------------|-----------------|-5-----5-5---5---|
E|-----------------|-----------------|-8-----8-8---8---|-----------------|

6:40
   *   *   *   *     *   *   *   *     *   *   *   *     *   *   *   *
G|-----------------|-----------------|-----------------|-----------------|
D|-----------------|-----------------|-----------------|-----------------|
A|-10------10--.-10|-10--.---8-------|-10----1010--.-10|-10------10------|
E|-----------------|-----------------|-----------------|-----------------|

   *   *   *   *     *   *   *   *     *   *   *   *     *   *   *   *
G|-----------------|-----------------|-----------------|-----------------|
D|-----------------|-----------------|-----------------|-----------------|
A|-8---------------|-6---------------|-----------------|-5---5-5-5---5---|
E|-----------------|-----------------|-8---8-8-8---8-8-|-----------------|

   *   *   *   *     *   *   *   *     *   *   *   *     *   *   *   *
G|-----------------|-----------------|-----------------|-----------------|
D|-----------------|-----------------|-----------------|-----------------|
A|-10----8---------|-----------------|-8-----6---------|-----------------|
E|-------------10--|(10)-------------|-------------6---|(6)--------------|

6:58
   *   *   *   *     *   *   *   *     *   *   *   *     *   *   *   *
G|-----------------|-----------------|-----------------|-----------------|
D|-----------------|-----------------|-----------------|-----------------|
A|-10------10--10--|-8-------8---8---|-10----1010--10--|-8-----8-8---8---|
E|-----------------|-----------------|-----------------|-----------------|

   *   *   *   *     *   *   *   *     *   *   *   *     *   *   *   *
G|-----------------|-----------------|-----------------|-----------------|
D|-----7-------7---|-----8-------8---|-----------------|-----------------|
A|-5-------5-------|-6-------6-------|---------.-5-6---|(6)--------------|
E|-----------------|-----------------|-8---8-8---------|-----------------|

   *   *   *   *     *   *   *   *     *   *   *   *
G|-----------------|-----------------|-----------------|
D|-----------------|-----------------|-----------------|
A|-----------3-4---|(4)--------------|-----------------|
E|-6---6-6-.-------|-----------------|-----------------|

7:13 (solo guitar)
   *   *   *   *     *   *   *   *     *   *   *   *     *   *   *   *
G|-----------------|-----------------|-----------------|-----------------|
D|-5-----5-5-------|-----------------|-5-----5-5-------|-----------------|
A|-------------5---|---8---5---5-8---|-------------5---|---8---5---5-8---|
E|-----------------|---------8-------|-----------------|---------8-------|

   *   *   *   *     *   *   *   *     *   *   *   *     *   *   *   *
G|-----------------|-----------------|-----------------|---5/7-7-5-------|
D|-5-----5-5-------|-.---------------|-5---5-5-5---8---|-.---------8-5---|
A|-----------------|---------5-8-5-8-|-----------------|---------------8-|
E|-----------------|---6---8---------|-----------------|-----------------|

   *   *   *   *     *   *   *   *     *   *   *   *     *   *   *   *
G|-----------------|-----------------|-----------------|-----------------|
D|-5-----5-5-------|-----------------|-5---5-5-5---8---|---5-------------|
A|-----------------|---------5---8---|-----------------|-------8-5---5---|
E|-----------------|---6-6-.---------|-----------------|-----------8-----|

   *   *   *   *     *   *   *   *     *   *   *   *     *   *   *   *
G|-----------------|-----------------|-----------------|-----------------|
D|-5-----5-5---.---|---8---------5---|-5---5-5-5---8---|---5-------------|
A|-----------------|---------5-8-----|-----------------|-------8-5---5---|
E|-----------------|-------8---------|-----------------|-----------8-----|

7:35
   *   *   *   *     *   *   *   *     *   *   *   *     *   *   *   *
G|-----------------|-----------------|-----------------|---5-------------|
D|-5-----5-5---.---|-------------5---|-5-5-5-5-5---8---|-------8-5---5---|
A|-----------------|---------5-8-----|-----------------|-----------8-----|
E|-----------------|---6---8---------|-----------------|-----------------|

   *   *   *   *     *   *   *   *     *   *   *   *     *   *   *   *
G|-----------------|-----------------|-----------------|-----------------|
D|-5---5-5-5---8-5-|-----------------|-5-5---5-5-------|-----------------|
A|-----------------|---8---5---5-8---|-----------8-5---|---------5-8-5---|
E|-----------------|---------8-------|-----------------|---6---8---------|

   *   *   *   *     *   *   *   *     *   *   *   *     *   *   *   *
G|-----------------|-----------------|-----------------|-----------------|
D|-5---5-5-5-------|-----------------|-5-5---5-5-------|-----------------|
A|-----------8-5---|---------5-8-5---|-----------8-5---|-----------5-8---|
E|-----------------|---6---8---------|---------------8-|-.-----6-8-------|

   *   *   *   *     *   *   *   *     *   *   *   *     *   *   *   *
G|-----------------|-----------------|-----------------|-------5-7-5-----|
D|-5-----5-5---.---|-------------5---|-5-5---5-5---.---|---8---------8-5-|
A|-----------------|---------5-8-----|-----------------|-----------------|
E|-----------------|---6---8---------|-----------------|-----------------|

7:56
   *   *   *   *     *   *   *   *     *   *   *   *     *   *   *   *
G|-----------------|-----------------|-----------------|-----------------|
D|---5---5-5-------|-----------------|-5-5---5-8---5-.-|-----------------|
A|-8-----------8-5-|-.---------5-8-5-|-----------------|---8---5-------5-|
E|-----------------|-------6-8-------|-----------------|---------8-6-8---|

   *   *   *   *     *   *   *   *     *   *   *   *     *   *   *   *
G|-----------------|-----------------|-----------------|---5-------------|
D|-5---5-5---------|-------------5---|-5-5---5-5---8---|-------8-5---5---|
A|---------8---5---|---------5-8-----|-----------------|-----------8-----|
E|---------------8-|---6---8---------|-----------------|-----------------|

   *   *   *   *     *   *   *   *     *   *   *   *     *   *   *   *
G|-----------------|-----------------|-----------------|-----------------|
D|-5-----5-5---8-5-|-----------------|-5-----5-5-------|-----------------|
A|-----------------|---8---5-------5-|-----------------|-------5-5-8-5-8-|
E|-----------------|---------8-6-8---|-------------6-6-|---8-------------|

   *   *   *   *     *   *   *   *     *   *   *   *     *   *   *   *
G|-----------------|-----------------|-----------------|-----------------|
D|-5-5---5-5-------|-----------------|-5-5---5-5-------|-----------------|
A|-----------------|-------5-8-5-8---|-----------------|-------5-8-5-8---|
E|-------------6---|---8-------------|-------------6---|---8-------------|

8:17
   *   *   *   *     *   *   *   *     *   *   *   *     *   *   *   *
G|-----------------|---5-7---5-------|-------------5---|-----------------|
D|-5-5---5-5---8---|-----------8-5---|-5-5---5-5-8-----|---8-5-----------|
A|-----------------|---------------8-|-----------------|-------8-5---5-8-|
E|-----------------|-----------------|-----------------|-----------5-----|

   *   *   *   *     *   *   *   *     *   *   *   *     *   *   *   *
G|-----------5-7---|-----------------|-----------5-7-5-|-----------------|
D|-5-5-5-5-8-------|-8-85----5---5-5-|-5-5-8-5-8-------|-8-5---5---5-5---|
A|-----------------|-----8-----8-----|-----------------|-----8-----------|
E|-----------------|-----------------|-----------------|-----------------|

   *   *   *   *     *   *   *   *     *   *   *   *     *   *   *   *
G|-----------------|-----------------|---------5-7---5-|-----------------|
D|-5-5-------------|-----5---5-5-5-5-|-5-8-5-8---------|-8-5---5-.-------|
A|---------3-4-5---|---8-------------|-----------------|-----8-------5-8-|
E|-----6-----------|-----------------|-----------------|-----------8-----|

   *   *   *   *     *   *   *   *     *   *   *   *     *   *   *   *
G|-----------------|-----------------|-----------------|-----------------|
D|-5---5-5-5-8-5---|---------5---5---|-5---8-5---------|---5---5-5-5-5---|
A|---------------8-|-5---5-8---------|---------8-5---5-|-8---------------|
E|-----------------|---8-------------|-------------8---|-----------------|

8:38
   *   *   *   *     *   *   *   *     *   *   *   *     *   *   *   *
G|---------5-7-6-5-|-----------------|-----------------|-----------------|
D|-5-8-5-8---------|-8-5---5---8-5---|-5---5---5-------|-------------5---|
A|-----------------|-----8---------8-|-------------8---|-8-5-----5-8-----|
E|-----------------|-----------------|-----------------|-------8---------|

   *   *   *   *     *   *   *   *     *   *   *   *     *   *   *   *
G|-----------------|-----------------|-----------------|-----------------|
D|-5-----5-5-------|-----------------|-5-----5-5-------|-----------------|
A|-------------5---|---8---5---5-8---|-------------5---|---8---5---5-8---|
E|-----------------|---------8-------|-----------------|---------8-------|

   *   *   *   *     *   *   *   *     *   *   *   *     *   *   *   *
G|-----------------|-----------------|-----------------|---5---7-5-------|
D|-5-----5-5-------|-----------------|-5-----5-5---8---|-----------8-5---|
A|-------------5---|---8---5---5-8---|-----------------|---------------8-|
E|-----------------|---------8-------|-----------------|-----------------|

   *   *   *   *     *   *   *   *     *   *   *   *     *   *   *   *
G|-----------------|-----------------|-----------------|-----------------|
D|-5-----5-5---8---|---5-------------|-5-----5-5-------|-----------------|
A|-----------------|-------8-5---5-8-|-----------------|-------5-8-5-8---|
E|-----------------|-----------8-----|-------------6---|---8-------------|

8:59
   *   *   *   *     *   *   *   *     *   *   *   *     *   *   *   *
G|-----------------|---5---7\5-------|-----------------|-----------------|
D|-5-----5-5---8---|-----------8-8-5-|-5-----5-5-------|-----------------|
A|-----------------|-----------------|-------------5---|---8---5---5-8---|
E|-----------------|-----------------|-----------------|---------8-------|

   *   *   *   *     *   *   *   *     *   *   *   *     *   *   *   *
G|-----------------|-----------------|-----------------|-----------------|
D|-5-----5-5-------|-----------------|-5-----5-5-------|-----------------|
A|-------------5---|---8---5---5-8---|-------------5---|---8---5---5-8---|
E|-----------------|---------8-------|-----------------|---------8-------|

   *   *   *   *     *   *   *   *
G|-----------------|-----------------|
D|-5-----5-----5---|-----------------|
A|---------------8-|-5-8-----5-------|
E|-----------------|-------------8\5-|

   *   *   *   *     *   *   *   *     *   *   *   *     *   *   *   *
G|-----------------|-----------------|-----------------|-----------------|
D|-----------------|-----------------|-----------------|-----------------|
A|-----------------|-----------------|-----------------|-----------------|
E|-3---------------|---------10--\---|-3---------------|(3)--------------|

9:17
   *   *   *   *     *   *   *   *     *   *   *   *     *   *   *   *
G|-----------------|-----------------|-----------------|-----------------|
D|-----------------|-----------------|-----------------|-----------------| (x2)
A|-----------------|-----------------|-----------------|-----------------|
E|-----------------|-----------------|-----------------|-----------------|

9:29
   *   *   *   *     *   *   *   *     *   *   *   *     *   *   *   *
G|-----------------|-----------------|-----------------|-----------------|
D|-----------------|-----------------|-----------------|-----------------|
A|-10--------------|(10)-----8-------|-10--------------|(10)-----8-------|
E|-----------------|-----------------|-----------------|-----------------|

   *   *   *   *     *   *   *   *     *   *   *   *     *   *   *   *
G|-----------------|-----------------|-----------------|-----------------|
D|-----------------|-----------------|-----------------|-----------------|
A|-----------------|-----------------|-----------------|-----------------|
E|-6---------------|(6)------6-------|-8---------------|-10--------------|

   *   *   *   *     *   *   *   *     *   *   *   *     *   *   *   *
G|-----------------|-----------------|-----------------|-----------------|
D|-----------------|-----------------|-----------------|-----------------|
A|-10--------------|(10)-----8-------|-10--------------|(10)-----10------|
E|-----------------|-----------------|-----------------|-----------------|

   *   *   *   *     *   *   *   *     *   *   *   *     *   *   *   *
G|-----------------|-----------------|-----------------|-----------------|
D|-----------------|-----------------|-----------------|-----------------|
A|-8---------------|-6---------------|-----------------|-----------------|
E|-----------------|-----------------|-8---------------|-10--------------|

9:51
   *   *   *   *     *   *   *   *     *   *   *   *     *   *   *   *
G|-----------------|-----------------|-----------------|-----------------|
D|-----------------|-----------------|-----------------|-----------------|
A|-10--------------|(10)-----8-------|-10------------10|-10------10------|
E|-----------------|-----------------|-----------------|-----------------|

   *   *   *   *     *   *   *   *     *   *   *   *     *   *   *   *
G|-----------------|-----------------|-----------------|-----------------|
D|-----------------|-----------------|-----------------|-----------------|
A|-8---------------|-6---------------|-----------------|-----------------|
E|-----------------|-----------------|-8---------------|-10--------------|

   *   *   *   *     *   *   *   *     *   *   *   *     *   *   *   *
G|-----------------|-----------------|-----------------|-----------------|
D|-----------------|-----------------|-----------------|-----------------|
A|-10----8---------|-----------------|-8-----6---------|-----------------|
E|-------------10--|(10)---------.---|-------------6---|(6)--------------|

   *   *   *   *
G|-----------------|
D|-----------------|
A|-----------------|
E|-----------------|

10:09
   *   *   *   *     *   *   *   *     *   *   *   *     *   *   *   *
G|-----------------|-----------------|-----------------|-----------------|
D|-----------------|-----------------|-----------------|-----------------|
A|-10----------10--|-8-----------8---|-10----------10--|-8-------8---.---|
E|-----------------|-----------------|-----------------|-----------------|

   *   *   *   *     *   *   *   *     *   *   *   *     *   *   *   *
G|-----------------|-----------------|-----------------|-----------------|
D|-----7-------7---|-----8-------8---|-----------------|-----------------|
A|-5-------5-------|-6-------6-------|-3-3---3-/-5-6---|(6)--------------|
E|-----------------|-----------------|-----------------|-----------------|

   *   *   *   *     *   *   *   *     *   *   *   *     *   *   *   *
G|-----------------|-----------------|-----------------|-----------------|
D|-----------------|-------5-6-----5-|-6-----5-6-8-6---|-6-----5-6-----5-|
A|-1-1---1-/-3-4---|(4)--------------|-----------------|-----------------|
E|-----------------|-----------------|-----------------|-----------------|

   *   *   *   *     *   *   *   *     *   *   *   *     *   *   *   *
G|-----------------|-----------------|-----------------|-----------------|
D|-6-----5-6-8-6---|-----------------|-----------------|-----------------|
A|-----------------|-----------------|-----------------|-----------------|
E|-----------------|-----------------|-----------------|-----------------|

   *   *   *   *
G|-----------------|
D|-----------------|
A|-----------------|
E|-----------------|

10:32
   *   *   *   *     *   *   *   *     *   *   *   *     *   *   *   *
G|-7---------------|-----------------|-----------------|-----------------|
D|-----10--8---7---|---------7---8---|-7---------------|-----------------|
A|-----------------|-8---10----------|-----10--8---7---|---------7---8---|
E|-----------------|-----------------|-----------------|-8---10----------|

   *   *   *     *   *   *     *   *   *   *     *   *   *   *   *
G|-------------|-------------|-----------------|---------------------|
D|-------------|-------------|-----------------|---------------------|
A|-5---.-------|-------------|-----------------|---------------------|
E|-------8---.-|-6---.-4---.-|-----------------|---------------------|

10:56
   *   *   *   *   *   *     *   *   *   *   *   *
G|-------------------------|-------------------------|
D|-8-----------7-----------|-5-----------5-----------| (x2)
A|-------------------------|---------------8-7-.-----|
E|-------------------------|-------------------------|

   *   *   *   *   *   *     *   *   *   *   *   *
G|-------------7-----------|-------------------------|
D|-7---9---10------10--9---|-----7---9---10--9---7---|
A|-------------------------|-10----------------------|
E|-------------------------|-------------------------|

   *   *   *   *   *   *     *   *   *   *   *   *
G|-------------------------|-------------------------|
D|---------7---9---7-------|-------------------------|
A|-8---10--------------10--|-7-----------------------|
E|-------------------------|-------------------------|

   *   *   *   *   *   *
G|-------------------------|
D|-------------------------|
A|(7)----------------------|
E|-------------------------|

11:16
   *   *   *   *   *   *     *   *   *   *   *   *
G|-------------------------|-------------------------|
D|-5-----------------------|-------------------------|
A|-------------8-----------|-------------------------|
E|-------------------------|-8---.-------------------|
                                                       (x2)
   *   *   *   *   *   *     *   *   *   *   *   *
G|-------------------------|-------------------------|
D|-----4-.---------4-.-----|-----4-.---------4-.-----|
A|-5-7---------5-7---------|-5-7---------5-7---------|
E|-------------------------|-------------------------|

11:33
   *   *   *   *   *   *     *   *   *   *   *   *
G|-5-----------------------|-------------------------|
D|-------------8-----------|-------------------------|
A|-------------------------|-8---.-------------------|
E|-------------------------|-------------------------|

   *   *   *   *   *   *     *   *   *   *   *   *
G|-----4-.---------4-.-----|-----4-.---------4-.-----|
D|-5-7---------5-7---------|-5-7---------5-7---------|
A|-------------------------|-------------------------|
E|-------------------------|-------------------------|

   *   *   *   *   *   *     *   *   *   *   *   *
G|-5-----------------------|-------------------------|
D|-------------8-----------|-7-----------------------|
A|-------------------------|-------------------------|
E|-------------------------|-------------------------|

   *   *   *   *   *   *     *   *   *   *   *   *
G|-------------------------|-------------------------|
D|(7)----------------------|(7)----------------------|
A|-------------------------|-------------------------|
E|-------------------------|-------------------------|

12:41
   *   *   *   *     *   *   *   *     *   *   *   *     *   *   *   *
G|---------7\6-7---|-----------------|-----------------|-----------------|
D|-5-.-5-.---------|-5-.-5-.---------|---------7\6-7---|--------/7--/7---| (x2)
A|-----------------|--------/5--/5---|-5-.-5-.---------|-5-.-5-.---------|
E|-----------------|-----------------|-----------------|-----------------|

   *   *   *   *     *   *   *   *     *   *   *   *     *   *   *   *
G|-----------------|-----------------|-----------------|-----------------|
D|---------5\4-5---|--------/5--/5---|---------7\6-7---|--------/7--/7---|
A|-3-.-3-.---------|-3-.-3-.---------|-5-.-5-.---------|-5-.-5-.---------|
E|-----------------|-----------------|-----------------|-----------------|

   *   *   *   *     *   *   *   *     *   *   *   *     *   *   *   *
G|---------5\4-5---|-----------------|--------/7--/7---|-----------------|
D|-3-.-3-.---------|-3-.-3-.---------|-5-.-5-.---------|-----------------|
A|-----------------|--------/3--/3---|-----------------|-3--33-.---------|
E|-----------------|-----------------|-----------------|---------5--55-.-|

13:11
   *     *     *     *       *     *     *     *
G|-------------------------|-------------------------|
D|-------------------------|-------------5p3---------|
A|-5---5-5---5-5p3-------3-|-3---3-3---3-----5-3p0---|
E|-----------------5-3h5---|-----------------------3-|

   *     *     *     *       *     *     *     *
G|-------------------------|-------------------------|
D|-------------------------|-5---5-5---5-3---3-3---3-|
A|-0---0-0---0-0h3p0-0h1h3-|-------------------------|
E|-------------------------|-------------------------|

   *     *     *     *       *     *     *     *
G|-------------------------|-------------------------|
D|-------------------------|-------------5p3---------|
A|-5---5-5---5-5-\-3-------|-3---3-3---3-----5-3p0---|
E|-------------------5-\-3-|-----------------------3-|

   *     *     *     *       *     *     *     *
G|-------------------------|-------------------------|
D|-------------------------|-5---5-5---5-3---3-3---3-|
A|-0---0-0---0-0---0---0-3-|-------------------------|
E|---------------0---3-----|-------------------------|

13:25
   *   *   *   *     *   *   *   *     *   *   *   *     *   *   *   *
G|-----------------|-----------------|-----------------|-----------------|
D|---------5\4-5---|--------/5--/5---|---------7\6-7---|--------/7--/7---|
A|-3-.-3-.---------|-3-.-3-.---------|-5-.-5-.---------|-5-.-5-.---------|
E|-----------------|-----------------|-----------------|-----------------|

   *   *   *   *     *   *   *   *     *   *   *   *     *   *   *   *
G|---------5\4-5---|-----------------|--------/7--/7---|-----------------|
D|-3-.-3-.---------|-3-.-3-.---------|-5-.-5-.---------|-----------------|
A|-----------------|--------/3--/3---|-----------------|-3--33-.---------|
E|-----------------|-----------------|-----------------|---------5--55-.-|

13:40
   *     *     *     *       *     *     *     *
G|-------------------------|-------------------------|
D|-------------------------|-------------5p3---------|
A|-5---5-5---5-5p3-------3-|-3---3-3---3-----5-3p0---|
E|-----------------5-3h5---|-----------------------3-|

   *     *     *     *       *     *     *     *
G|-------------------------|-------------------------|
D|-------------------------|-5---5-5-5-5-3---3-3---3-|
A|-0---0-0---0-0h3p0-0h1h3-|-------------------------|
E|-------------------------|-------------------------|

   *     *     *     *       *     *     *     *
G|-------------------------|-------------------------|
D|-------------------------|-------------5p3---------|
A|-5---5-5---5-5p3-------3-|-3---3-3---3-----5-3p0---|
E|-----------------5-3h5---|-----------------------3-|

   *     *     *     *       *     *     *     *
G|-------------------------|-------------------------|
D|-------------------------|-5---5-5---5-3---3-3---3-|
A|-0---0-0---0-0h3p0-0h1h3-|-------------------------|
E|-------------------------|-------------------------|

13:54
   *   *   *   *     *   *   *   *     *   *   *   *     *   *   *   *
G|-----------------|-----------------|-----------------|-----------------|
D|---------5\4-5---|--------/5--/5---|---------7\6-7---|--------/7--/7---|
A|-3-.-3-.---------|-3-.-3-.---------|-5-.-5-.---------|-5-.-5-.---------|
E|-----------------|-----------------|-----------------|-----------------|

   *   *   *   *     *   *   *   *     *   *   *   *     *   *   *   *
G|---------5\4-5---|-----------------|--------/7--/7---|-----------------|
D|-3-.-3-.---------|-3-.-3-.---------|-5-.-5-.---------|-----------------|
A|-----------------|--------/3--/3---|-----------------|-3--33-.---------|
E|-----------------|-----------------|-----------------|---------5--55-.-|

14:08
   *     *     *     *       *     *     *     *
G|-------------------------|-------------------------|
D|-------7p5---------------|-------------5-----7-----| (x4)
A|-5---5-----7-5p3-------3-|-3---3-3---3-------------|
E|-----------------5-3h5---|-------------------------|

14:23
   *   *   *   *     *   *   *   *     *   *   *   *     *   *   *   *
G|-----------------|-----------------|-----------------|-----------------|
D|---------7\6-7---|--------/7--/7---|---------5\4-5---|--------/5--/5---|
A|-5-.-5-.---------|-5-.-5-.---------|-3-.-3-.---------|-3-.-3-.---------|
E|-----------------|-----------------|-----------------|-----------------|
                                                                           (x2)
   *   *   *   *     *   *   *   *     *   *   *   *     *   *   *   *
G|---------7\6-7---|-----------------|--------/9--/9---|-----------------|
D|-5-.-5-.---------|-5-.-5-.---------|-7-.-7-.---------|-7---7-----------|
A|-----------------|--------/5--/5---|-----------------|--------/7--/7---|
E|-----------------|-----------------|-----------------|-----------------|

14:51
   *     *     *     *       *     *     *     *
G|-------------------------|-------------------------|
D|-------------------------|-------------------------|
A|-3---3-.-----------------|-6---6-.-----3---3-.-----|
E|-------------5---5-.-----|-------------------------|

   *     *     *     *       *     *     *     *
G|-------------------------|-------------------------|
D|-------------------------|-------------------------|
A|-4---4-.-----------------|-6-----6-----6-----6-.---|
E|-------------6---6-.-----|-------------------------|

   *     *     *     *       *     *     *     *
G|-------------------------|-------------------------|
D|-5-5-5-3-3-3-------------|-----4-------7-\-6-7-----| (x2)
A|-------------3-----.-----|-5-7---------------------|
E|-------------------------|-------------------------|

   *     *     *     *       *     *     *     *
G|-5-5-5-3-3-3-------------|-----4-------7-\-6-7-----|
D|-------------3-----.-----|-5-7---------------------|
A|-------------------------|-------------------------|
E|-------------------------|-------------------------|

   *     *     *     *       *     *     *     *
G|-5-5-5-3-3-3-------------|-----4-.---------6-.-----|
D|-------------3-----.-----|-5-7---------7-9---------|
A|-------------------------|-------------------------|
E|-------------------------|-------------------------|

15:13
   *     *     *     *       *     *     *     *
G|-------------------------|-------------------------|
D|-------------------------|-------------------5-----|
A|-2-----------------------|(2)----.-----2-----------|
E|-------------------------|-------------------------|

   *     *     *     *       *     *     *     *
G|-------------------------|-------------------------|
D|-------------------------|-------------------------|
A|-5-----------------------|-3---3-.-----------------|
E|-------------------------|-------------5---5-.-----|

   *     *     *     *       *     *     *     *
G|-------------------------|-------------------------|
D|-------------------------|-------------------------|
A|-5---5-5---5-5---5-5---5-|-3---3-3---3-3---3-3---3-|
E|-------------------------|-------------------------|
                                                       (x2)
   *     *     *     *       *     *     *     *
G|-------------------------|-------------------------|
D|-------------------------|-5---5-5-----3---3-3-----|
A|-------------------------|-------------------------|
E|-5---5-5---5-5---5-5---5-|-------------------------|

15:34
   *   *   *   *     *   *   *   *     *   *   *   *     *   *   *   *
G|-----------------|-----------------|-----------------|-----------------|
D|---------5\4-5---|--------/5--/5---|---------7\6-7---|--------/7--/7---|
A|-3-.-3-.---------|-3-.-3-.---------|-5-.-5-.---------|-5-.-5-.---------|
E|-----------------|-----------------|-----------------|-----------------|

   *   *   *   *     *   *   *   *     *   *   *   *     *   *   *   *
G|-----------------|-----------------|---------7\6-7---|-----------------|
D|---------5\4-5---|-3-.-3-.---------|-5-.-5-.---------|-----------------|
A|-3-.-3-.---------|--------/3--/3---|-----------------|-3--3.-----------|
E|-----------------|-----------------|-----------------|---------5--5.---|

16:29
   *     *     *     *       *     *     *     *
G|-------------5-----.-----|-------------5-----.-----|
D|-7-----7---8-------------|-7-----7---8-------------|
A|-------------------------|-------------------------|
E|-------------------------|-------------------------|

   *     *     *     *       *     *     *     *
G|-5-----------------------|-------------5-----.-----|
D|-------8-----7-----------|-7-----7---8-------------|
A|-----------------8-8-----|-------------------------|
E|-------------------------|-------------------------|

   *     *     *     *       *     *     *     *
G|---5-5-5---5-7-5---------|-------------------------|
D|-----------------8-8---.-|-7-----5-----------------|
A|-------------------------|-----8---8---------------|
E|-------------------------|-------------------------|
 |            x3           |

16:45
   *     *     *     *       *     *     *     *
G|-------------5-----.-----|-------------5-----.-----|
D|-7-----7---8-------------|-7-----7---8-------------|
A|-------------------------|-------------------------|
E|-------------------------|-------------------------|

   *     *     *     *       *     *     *     *
G|-5-----------------------|-------------5-----.-----|
D|-------8-----7-----------|-7-----7---8-------------|
A|-----------------8-8-----|-------------------------|
E|-------------------------|-------------------------|

   *     *     *     *       *     *     *     *
G|---5-5-5---5-7-5---------|-------------------------|
D|-----------------8-8---.-|-7-----5-----------------|
A|-------------------------|-----8---8---------------|
E|-------------------------|-------------------------|
 |            x3           |

17:01
   *     *     *     *       *     *     *     *
G|-------------------------|-------------------------|
D|-------------------------|-------------------------|
A|-------------------------|-------------------------|
E|-------------------------|-------------------------|

   *     *     *     *       *     *     *     *
G|-5-----8\7-5-5-----------|-------------------------|
D|---8-6---------8-6-------|-------1\0---------------|
A|-------------------7-----|-3-1-------3-3-1-------4-|
E|-------------------------|-----4-----------4-0-.---|

   *     *     *     *       *     *     *     *
G|-------------------------|-------------------------|
D|-------------------------|-------------------------|
A|-3-----1-----------------|-------------------------|
E|-----4---4---.-----------|-------------------------|

18:01
   *   *   *   *     *   *   *   *     *   *   *   *     *   *   *   *
G|-----------------|-----------------|-----------------|-----------------|
D|-----------------|-----8---.-7-5---|-----------------|-----10--.-8-7---| (x6)
A|-8-.-8-8-8-.-8-8-|-8-.-----------6-|-8-.-8-8-8-.-8-8-|-8-.-----------8-|
E|-----------------|-----------------|-----------------|-----------------|

18:33
   *   *   *   *     *   *   *   *     *   *   *   *     *   *   *   *
G|-----------------|-----------------|-----------------|---------------5-|
D|-----------------|-----------------|-----------------|-------5-7-5-----|
A|-6-.-6-6-6-.-----|---------5-----8-|-------------8-8-|-8-.-8-------8---|
E|-------------6-6-|-6-.-6-8---8-6---|-6-.-6-6-6-.-----|-----------------|

   *   *   *   *     *   *   *   *     *   *   *   *     *   *   *   *
G|-----------------|-----------------|-----------------|-----------------|
D|-------------5-5-|-5-.-5-7-8-7-5---|-----------------|-----10--.-8-7---|
A|-6-.-6-6-6-.-----|---------------5-|-------------8-8-|-8-------------8-|
E|-----------------|-----------------|-8-.-8-8-8-.-----|-----------------|

   *   *   *   *     *   *   *   *
G|-----------------|-----------------|
D|-----------------|-----10--.-8-7---|
A|-8-.-8-8-8-.-8-8-|-8-------------8-|
E|-----------------|-----------------|

18:46
   *   *   *   *     *   *   *   *     *   *   *   *     *   *   *   *
G|-----------------|-----------------|-----------------|---------------5-|
D|-----------------|-----------------|-----------------|-------5-7-5-----|
A|-6-.-6-6-6-.-----|---------5-----8-|-------------8-8-|-8-.-8-------8---|
E|-------------6-6-|-6-.-6-8---8-6---|-6-.-6-6-6-.-----|-----------------|

   *   *   *   *     *   *   *   *     *   *   *   *     *   *   *   *
G|-----------------|-----------------|-----------------|-----------------|
D|-------------5-5-|-5-.-5-7-8-7-5---|-----------------|-----10--.-8-7---|
A|-6-.-6-6-6-.-----|---------------5-|-------------8-8-|-8-------------8-|
E|-----------------|-----------------|-8-.-8-8-8-.-----|-----------------|

   *   *   *   *     *   *   *   *
G|-----------------|-----------------|
D|-----------------|-----10--.-8-7---|
A|-8-.-8-8-8-.-8-8-|-8-------------8-|
E|-----------------|-----------------|

18:59
   *   *   *   *     *   *   *   *     *   *   *   *     *   *   *   *
G|-----------------|-----------------|-----------------|-----------------|
D|-5---.-5-5---.---|-5---.-5-5-5-3---|-----------------|-----3---3---3---| (x2)
A|-----------------|---------------5-|-3---.-3-3---.---|---5---5---5-----|
E|-----------------|-----------------|-----------------|-----------------|

19:09
   *   *   *   *     *   *   *   *     *   *   *   *     *   *   *   *
G|-----------------|-----------------|-----------------|-----------------|
D|-5---.-5-5---.---|-5---.-5-5---\-3-|-----------------|-----------------|
A|-----------------|-----------------|-6---.-6-6---.---|-6---.-6-6---.---|
E|-----------------|-----------------|-----------------|-----------------|

   *   *   *   *     *   *   *   *     *   *   *   *     *   *   *   *
G|-----------------|-----------------|-----------------|-----------------|
D|-----------------|-----------------|-----------------|-----------------|
A|-3---.-3-3---.---|-3---.-3-3---.---|-5---.-5-5---.---|-5---.-5-5---.---|
E|-----------------|-----------------|-----------------|-----------------|

   *   *   *   *     *   *   *   *
G|-----------------|---------3-5-----|
D|-5---------------|---3-5-3-----5---|
A|-----------------|-3---------------|
E|-----------------|-----------------|

19:22
   *   *   *   *     *   *   *   *     *   *   *   *     *   *   *   *
G|-----------------|-----------------|-----------------|-----------------|
D|-----------------|-----8---.-7-5---|-----------------|-----10--.-8-7---| (x6)
A|-8-.-8-8-8-.-8-8-|-8-.-----------6-|-8-.-8-8-8-.-8-8-|-8-.-----------8-|
E|-----------------|-----------------|-----------------|-----------------|

19:52
   *   *   *   *     *   *   *   *     *   *   *   *     *   *   *   *
G|-----------------|-----------------|-----------------|---------------5-|
D|-----------------|-----------------|-----------------|-------5-7-5-----|
A|-6-.-6-6-6-.-----|---------5-----8-|-------------8-8-|-8-.-8-------8---|
E|-------------6-6-|-6-.-6-8---8-6---|-6-.-6-6-6-.-----|-----------------|

   *   *   *   *     *   *   *   *     *   *   *   *     *   *   *   *
G|-----------------|-----------------|-----------------|-----------------|
D|-------------5-5-|-5-.-5-7-8-7-5---|-----------------|-----10--.-8-7---|
A|-6-.-6-6-6/8-----|---------------5-|-------------8-8-|-8-------------8-|
E|-----------------|-----------------|-8-.-8-8-8-.-----|-----------------|

   *   *   *   *     *   *   *   *
G|-----------------|-----------------|
D|-----------------|-----10--.-8-7---|
A|-8-.-8-8-8-.-8-8-|-8-------------8-|
E|-----------------|-----------------|

20:05
   *   *   *   *     *   *   *   *     *   *   *   *     *   *   *   *
G|-----------------|-----------------|-----------------|---------------5-|
D|-----------------|-----------------|-----------------|-------5-7-5-----|
A|-6-.-6-6-6-.-----|---------5-----8-|-------------8-8-|-8-.-8-------8---|
E|-------------6-6-|-6-.-6-8---8-6---|-6-.-6-6-6-.-----|-----------------|

   *   *   *   *     *   *   *   *     *   *   *   *     *   *   *   *
G|-----------------|-----------------|-----------------|-----------------|
D|-------------5-5-|-5-.-5-7-8-7-5---|-----------------|-----10--.-8-7---|
A|-6-.-6-6-6/8-----|---------------5-|-------------8-8-|-8-------------8-|
E|-----------------|-----------------|-8-.-8-8-8-.-----|-----------------|

   *   *   *   *     *   *   *   *
G|-----------------|-----------------|
D|-----------------|-----10--.-8-7---|
A|-8-.-8-8-8-.-8-8-|-8-------------8-|
E|-----------------|-----------------|

20:18
   *   *   *   *     *   *   *   *     *   *   *   *     *   *   *   *
G|-----------------|-----------------|-----------------|-----------------|
D|-----------------|-----8---.-7-5---|-----------------|-----10--.-8-7---| (x5)
A|-8-.-8-8-8-.-8-8-|-8-.-----------6-|-8-.-8-8-8-.-8-8-|-8-.-----------8-|
E|-----------------|-----------------|-----------------|-----------------|

20:44
   *   *   *     *   *   *     *   *   *     *   *   *
G|-7---7-7-7---|-------------|-7---7-7-7---|-------------|
D|-------------|-5-.-----3-.-|-------------|-5-.-----3-.-|
A|-------------|-----3-5-----|-------------|-----3-5-----|
E|-------------|-------------|-------------|-------------|

   *   *   *   *     *   *   *   *     *   *   *   *     *   *   *   *
G|-----------------|-----------------|-----------------|-----------------|
D|-----------------|-----8---.-7-5---|-----------------|-----10--.-8-7/8-|
A|-8-.-8-8-8-.-8-8-|-8-.-----------6-|-8-.-8-8-8-.-8-8-|-8-.-------------|
E|-----------------|-----------------|-----------------|-----------------|

   *   *   *     *   *   *     *   *   *     *   *   *
G|-7---7-7-7---|-------------|-7---7-7-7---|-------------|
D|-------------|-5-.-----3-.-|-------------|-5-.-----3-.-|
A|-------------|-----3-5-----|-------------|-----3-5-----|
E|-------------|-------------|-------------|-------------|

   *   *   *   *     *   *   *   *     *   *   *   *     *   *   *   *
G|-----------------|-----------------|-----------------|-----------------|
D|-----------------|-----8---.-7-5---|-----------------|-----10--.-8-7-.-|
A|-8-.-8-8-8-.-8-8-|-8-.-----------6-|-8-.-8-8-8-.-8-8-|-8-.-------------|
E|-----------------|-----------------|-----------------|-----------------|

21:01
   *   *   *     *   *   *     *   *   *     *   *   *
G|-------------|-------------|-------------|-------------|
D|-------------|-------------|-------------|-------------| (x12)
A|-------------|-------1-.-3-|-.-----------|---------1-.-|
E|-------------|---1-.-------|-------------|-1-.-1-.-----|



Buenos Aires. May, 2015.

soldync@yahoo.com.ar
Добавлено: 26.09.2015
Другие материалы по этой песне:
  • Аккорды и текст

Страница создана 26.09.2015
http://primanota.ru/jethro-tull/thick-as-a-brick-part-i-chords.htm
Привет, Гость.
Предлагаем пройти революционный курс по гитаре.
Подарок от PrimaNota.Ru, забирай!