PrimaNota.ru - самый крупный в мире бесплатный архив песенных текстов, аккордов, табулатур и нот


Jethro Tull - Minstel In The Gallery - таба, видео

Регистрация Запомнить меня
Войти через:  Facebook Google Twitter Vk Yandex Mail.ru

Jethro Tull - Minstel In The Gallery - таба, видео

Печатать
Просмотров: 74
Hi All,
This is my first time putting up a TAB so i hope you like it.

OK.. its not the full intro bit but it is the one just before the first verse.
I think it is pretty close to the guitar as i have watched the video and listened to it 
a few times...lol
Please listen to this amazing song before you try this or it makes no sense as there is 
irregular timing to the song that gives it a staggered feel. awesome.

When playing  group of 666 and 999, start lower down and slide your finger up to the 
and then slide down to the 444 and 777.
The end section of 4-2-0-2 should be pull off and hammer on fast


E    ---------------------------------------------------------------|
B    ---------------------------------------------------------------|
G    -----2-----6-6-6-4-4-4------2-4--------2----2-4-4--------------|
D    -2-4---4----------------2-4--------2-4---4--2-4-4--------------|
A    --------------------------------2-------------------4-2-0-2----|
E    ---------------------------------------------------------------|


E    -----------9-9-9-7-7-7-----------------------------------------|
B    ---------------------------------------------------------------|
G    -----2----------------------2-4--------2----2-4-4--------------|
D    -2-4---4----------------2-4--------2-4---4--2-4-4--------------|
A    --------------------------------2-------------------4-2-0-2----|
E    ---------------------------------------------------------------|


E    ---------------------------------------------------------------|
B    ---------------------------------------------------------------|
G    -----2-----6-6-6-4-4-4------2-4--------2----2-4-4--------------|
D    -2-4---4----------------2-4--------2-4---4--2-4-4--------------|
A    --------------------------------2-------------------4-2-0-2----|
E    ---------------------------------------------------------------|

Repeat this til the start of the first verse

The chords for the first verse are as follows.

E    -------------------3-------------------------------------------|
B    -10-9--------------3-----3--------10-10-10-9-9-----------------|
G    -9--9------2-4-----0-----2---------9--9--9-9-9-----------------|
D    -9--9------2-4-----------0---------9--9--9-9-9-----------------|
A    -----------2-4-------------------------------------------------|
E    ---------------------------------------------------------------|

Repeat this for the first verse.

Well thats it so far.. will post up more once I have worked it out.

Any comments please feel free. thanks
Добавлено: 23.07.2013
Другие материалы по этой песне:
  • Аккорды и текст

Страница создана 23.07.2013
http://primanota.ru/jethro-tull/minstel-in-the-gallery-chords.htm
Привет, Гость.
Предлагаем пройти революционный курс по гитаре.
Подарок от PrimaNota.Ru, забирай!