PrimaNota.ru - самый крупный в мире бесплатный архив песенных текстов, аккордов, табулатур и нот


Jethro Tull - Jump Start - аккорды и текст, таба, видео

Регистрация Запомнить меня
Войти через:  Facebook Google Twitter Vk Yandex Mail.ru

Jethro Tull - Jump Start - аккорды и текст, таба, видео

Печатать
Просмотров: 119
Авторы музыки: Ian Anderson
Авторы текста: Ian Anderson
Jump Start
Jethro Tull
(0:36)
E|---------|
B|---------|
G|---------|
D|--7-/-12-|
A|---------|
E|---------|

(0:49)
E|-------------------------|
B|-------------------------|
G|--9b(10)--9--9b(10)--7~~-|
D|-------------------------|
A|-------------------------|
E|-------------------------|

(0:56)
E|-------------|
B|-------------|
G|-------------|
D|--7-/-10-\-7-|
A|-------------|
E|-------------|

(1:03)
E|-------------------------------------------------------10-|
B|----------8--6----------8--6----------8--6----9--8--6-----|
G|-----5h7------------5h7-----------5h7---------------------|
D|--7---------------7-------------7-------------------------|
A|----------------------------------------------------------|
E|----------------------------------------------------------|

(1:09)
E|------------------------------------------------------------|
B|----------8--6-----------8--6-----------8--6----6--9--8--10-|
G|-----5h7------------5h7------------5h7----------------------|
D|--7--------------7--------------7---------------------------|
A|------------------------------------------------------------|
E|------------------------------------------------------------|

(1:22)
E|---------------------|
B|------------[8]--[6]-|
G|--[5]--[7]-----------|
D|---------------------|
A|---------------------|
E|---------------------|

(1:29)
E|-----------------|
B|-------13--------|
G|--12b------[14]~-|
D|-----------------|
A|-----------------|
E|-----------------|

(2:00)
E|-------------------------------------------------------10-|
B|----------8--6----------8--6----------8--6----9--8--6-----|
G|-----5h7------------5h7-----------5h7---------------------|
D|--7---------------7-------------7-------------------------|
A|----------------------------------------------------------|
E|----------------------------------------------------------|

(2:06)
E|------------------------------------------------------------|
B|----------8--6-----------8--6-----------8--6----6--9--8--10-|
G|-----5h7------------5h7------------5h7----------------------|
D|--7--------------7--------------7---------------------------|
A|------------------------------------------------------------|
E|------------------------------------------------------------|

Solo:

(2:12)
E|-----------------------------------------15b--15~~--13h15-----------|
B|--------------6p5-------/15~~~--18~~~------------------------[15]~~-|
G|---------5h7-------7p5----------------------------------------------|
D|--7--7--------------------------------------------------------------|
A|--5--5--------------------------------------------------------------|
E|--------------------------------------------------------------------|

(2:48)
E|-----------------------------------------------8h10--10p8---------|
B|------------------8-8/10---10--10--10h12--10---------------10--10-|
G|--5--7--7--7--7---------------------------------------------------|
D|------------------------------------------------------------------|
A|------------------------------------------------------------------|
E|------------------------------------------------------------------|

(2:54)
E|------------------------------------------------------------------8-|
B|--8h10p8------8------------------------------6----10--10--8--10-----|
G|----------10-----10--7--7----5--7--7--5--7--------------------------|
D|--------------------------------------------------------------------|
A|--------------------------------------------------------------------|
E|--------------------------------------------------------------------|

(2:57)
E|--13h15--13p10----------------------|
B|----------------13p10---------------|
G|-----------------------12h14--------|
D|------------------------------15p12-|
A|------------------------------------|
E|------------------------------------|

(3:00) - Repeat until (3:04)
E|-------------|--------------------------------------|
B|-------------|--------------------------------------|
G|--------10---| I'm not sure if this is exactly what-|
D|--10h12------| is played here, but it sounds ok.----|
A|-------------|--------------------------------------|
E|-------------|--------------------------------------|

(3:04) (let ring)
E|---------------10-|
B|--8/10--8------8--|
G|-----------10-----|
D|------------------|
A|------------------|
E|------------------|

End Solo.

(3:14)
E|---------|
B|---------|
G|---------|
D|--7-/-12-|
A|---------|
E|---------|

(3:25)
E|--------------------|
B|--12----------------|
G|--12---10--12-------|
D|---------------12~~-|
A|--------------------|
E|--------------------|

(3:30)
E|---------|
B|--13b~~~-|
G|---------|
D|---------|
A|---------|
E|---------|

(3:39)
E|-------------------------------------------------------10-|
B|----------8--6----------8--6----------8--6----9--8--6-----|
G|-----5h7------------5h7-----------5h7---------------------|
D|--7---------------7-------------7-------------------------|
A|----------------------------------------------------------|
E|----------------------------------------------------------|

(3:46)
E|------------------------------------------------------------|
B|----------8--6-----------8--6-----------8--6----6--9--8--10-|
G|-----5h7------------5h7------------5h7----------------------|
D|--7--------------7--------------7---------------------------|
A|------------------------------------------------------------|
E|------------------------------------------------------------|

(3:51)
E|--12--12--12----12--12--12----12--12--12---------------|
B|--10--10--12----10--10--10----10--10--10---------------|
G|-------------------------------------------------------|
D|-------------------------------------------------------|
A|-----------------------------------------------3-----5-|
E|--------------------------------------------3-----5----|

If you're fast enough you can do this next part by
yourself, except for the first few notes that overlap.

(3:57)
-----
| Guitar 1:
E|--12--12--12-------------------12--12--12-|
B|--10--10--10-------------------10--10--10-|
G|------------------------------------------|
D|------------------------------------------|
A|------------------------------------------|
E|------------------------------------------|
| Guitar 2:
E|--------------------------------------------------------|
B|--8br-6-8br-6------------3------------------------------|
G|--------------------------------------------------------|
D|--------------------3h5-(5)---------------------3-------|
A|-----------------5---------------------------3-----3--5-|
E|--------------------------------------------------------|
-----

End of dual guitar part.

Outro Solo:

(4:03)
E|----------------------------------------------------------------------|
B|--[18]b--16--[18]brbrb----[15]b--[17]--[15]h[17]--[19]r[17]-----------|
G|-------------------------------------------------------------16-16~~~-|
D|----------------------------------------------------------------------|
A|----------------------------------------------------------------------|
E|----------------------------------------------------------------------|

(4:09)
E|---------7-------7---------------------------------------------|
B|------7-----7h10----10------------------7--10-----7------------|
G|--9b--------------------[9]--7b-----7b---------9-----7---------|
D|---------------------------------9----------------------9------|
A|-----------------------------------------------------------9-\-|
E|---------------------------------------------------------------|

(4:15)
E|-----------------------------------------------------------------------------|
B|-----------------------------------------8--10--9--8-------------------------|
G|--------------------5--7----10------10b---------------10--7------7---7--6----|
D|-----------5--7--8-------------------------------------------10------------9-|
A|--5--7--8--------------------------------------------------------------------|
E|--------------------------------10-------------------------------------------|

(4:22)
E|-----------------------------------------------14--17--15--14---------------|
B|----------------7--7/10---10--10/12--10--12--------------------17-----------|
G|--7--7/9--9--9-----------------------------------------------------16-16~~~-|
D|--9-------------------------------------------------------------------------|
A|----------------------------------------------------------------------------|
E|----------------------------------------------------------------------------|

(4:27) - Repeat 4 times
E|------------------------|
B|------10--13------10h13-|
G|------------------------|
D|--12----------12--------|
A|------------------------|
E|------------------------|

Then play:
(4:32)
E|--------------------|
B|--13/15--13---------|
G|-------------12--14-|
D|--------------------|
A|--------------------|
E|--------------------|

(4:33)
E|------------|--------------------|
B|----10h13---|--------------------|
G|------------| Play this 10 times-|
D|--12--------| Really fast.-------|
A|------------|--------------------|
E|------------|--------------------|

Then:
(4:37)
E|--------------------------------|
B|-----10-13-11-10----------------|
G|-----------------12-10br--------|
D|--12---------------------12--12-|
A|--------------------------------|
E|--------------------------------|

(4:39)
E|-----------------------------------------------------------------------------|
B|-----------------------------------------------------------------------------|
G|-----------------------------------------------------------------------------|
D|--------10-{10}---------12-{12}---------10-{10}-{10}-{10}-{10}-------3-----5-|
A|--10h12-----------10h12-----------10h12---------------------------3-----3----|
E|-----------------------------------------------------------------------------|

(4:46)
E|--12----{12}-{12}-{12}-{12}-{12}-|
B|--10----{10}-{10}-{10}-{10}-{10}-|
G|---------------------------------|
D|---------------------------------|
A|---------------------------------|
E|---------------------------------|

(4:48)
E|-------------|
B|-------------|
G|-------------|
D|-------------|
A|-----3-----5-|
E|--3-----5----|

I couldn't find the tabs to this song anywhere, so I spent a couple days
tabbing it myself. If you see any corrections that could be made (I'm sure
there're at least a few of them) then please let me know.

Here's the lyrics if you're interested:

In the dark of the city backwoods, something stirs then slips away.
Law and order in darkest Knightsbridge. Crime and punishment at play.
Hey, Mr. Policeman won't you come on over.
Hook me up to the power lines of your love.
Jump start, or tow me away. Jump start, or tow me away.

And through the bruised machinery, the smoking haze of industry.
Another day with ball and chain. I do my time, then home again.
Hey, Mrs. Maggie won't you come on over.
Hook me up to the power lines of your love.
Jump start, or tow me away. Jump start, or tow me away.

Well, should I blame the officers, or maybe I should blame the priest?
Or should I blame the poor foot soldier
who's left to make the most from least?
Hey, Jack Ripper won't you come on over.
Hook me up to the power lines of your love.
Hook me up to the power lines of your love.

You can blame the newsman talking at you on the satellite T.V.
And if you're fighting for your shipyards, you might as well just blame the sea.
Hey, Mr. Weatherman come on over. Hook me up to the power lines of your love.
Jump start, or tow me away. Jump start, or tow me away.
Добавлено: 28.11.2013
Другие материалы по этой песне:
  • Аккорды и текст

Страница создана 07.04.2012
http://primanota.ru/jethro-tull/jump-start-chords.htm
Привет, Гость.
Предлагаем пройти революционный курс по гитаре.
Подарок от PrimaNota.Ru, забирай!