PrimaNota.ru - самый крупный в мире бесплатный архив песенных текстов, аккордов, табулатур и нот


Jethro Tull - Hunting Girl - текст песни, бас-таба, видео

Регистрация Запомнить меня
Войти через:  Facebook Google Twitter Vk Yandex Mail.ru

Jethro Tull - Hunting Girl - текст песни, бас-таба, видео

Печатать
Просмотров: 144
Авторы музыки: Ian Anderson
Авторы текста: Ian Anderson
Hunting Girl
Bass Tab


A|0----5--7-|

G|-------------2----------|-------------|
D|2--3-2-0----------------|-------------|
A|----------3-----0-------|3--5---------|
E|------------------------|------------0|

G|------------------|
D|-------------2----|
A|2--3-2-0----------|
E|----------3-----0-|

G|-------------------9--9-7----|
D|------7-7-7---------------10-|
A|-----------------------------|
E|0--5---------5--5------------|

G|----------------9--9-7----|-------------------------12-|
D|---7-7-7---------------10-|------------------10-12-----|
A|--------------------------|---7-7-7-5----10------------|
E|5---------5--5------------|5----------8----------------|

G|----------------9--9-7----|---------------------5------|---
D|---7-7-7---------------10-|---7-7-7-----------5--------|   |
A|--------------------------|--------------5-7-----------|
E|5---------5--5------------|5---------5-----------------|
                                                      Repeat 2x
G|----------------9--9-7----|-------------------------12-|
D|---7-7-7---------------10-|------------------10-12-----|
A|--------------------------|---7-7-7-5----10------------|   |
E|5---------5--5------------|5----------8----------------|---


Below, I give you just the notes. The rhythm is the same as the snare drum.
E|--5---5-----5-----8-----5---5-----5----3-|Repeat 2x

**He plays the same melody with two different rhythms within each verse.
I've tried to mark them, but look/listen carefully!

Verse 1; Rhythm 1
G|-------------------|-------------------|
D|-------------------|-------------------|
A|-7--7--7--7---5--7-|-7--7--7--5---5--3-|
E|-------------------|-------------------|

G|-------------------|-------------------|
D|-------------------|-------------------|
A|-3--3--3--3--------|--------------5--7-|
E|--------------3--5-|-5--5--5--5--------|

G|-------------------|-------------------|
D|-------------------|-------------------|
A|-7--7--7--7---5--7-|-7--7--7--5---5--3-|
E|-------------------|-------------------|

G|-------------------|-------------------|
D|-------------------|-------------------|
A|-3--3--3--3--------|-----------------3-|
E|--------------3--5-|-5--5--5--5---3----|

"One fine young lady's horse..."
G|--------------------|-------------------|
D|--------------------|-------------------|
A|-3--3--3---5--5--5--|-------------------|
E|--------------------|-3--3--3---5--5--5-|

Rhythm 2
G|-------------------|-------------------|
D|-------------------|-------------------|
A|-7--7--7--7---5--7-|7---7---5---5--3---|
E|-------------------|-------------------|

G|--------------------|-------------------|
D|--------------------|-------------------|
A|-3--3--3---5--5--5--|-------------------|
E|--------------------|-3--3--3---5--5--5-|

G|--------------------|------------------------|
D|-------5--7---------|-9--9--9--9---9---------|
A|-3--5---------------|------------------------|
E|--------------5--7--|----------------5--7--0-|

Verse 2; Rhythm 2
G|-------------------|-------------------|
D|-------------------|-------------------|
A|-7--7--7--7---5--7-|7---7---5---5--3---|
E|-------------------|-------------------|

G|-------------------|-------------------|
D|-------------------|-------------------|
A|-3--3--3--3--------|--------------5--7-|
E|--------------3--5-|-5--5--5--5--------|

Rhythm 1
G|-------------------|-------------------|
D|-------------------|-------------------|
A|-7--7--7--7---5--7-|-7--7--7--5---5--3-|
E|-------------------|-------------------|

G|-------------------|-------------------|
D|-------------------|-------------------|
A|-3--3--3--3--------|-----------------3-|
E|--------------3--5-|-5--5--5--5---3----|

"All should be warned..."
G|--------------------|-------------------|
D|--------------------|-------------------|
A|-3--3--3---5--5--5--|-------------------|
E|--------------------|-3--3--3---5--5--5-|

Rhythm 2
G|-------------------|-------------------|
D|-------------------|-------------------|
A|-7--7--7--7---5--7-|7---7---5---5--3---|
E|-------------------|-------------------|

G|--------------------|-------------------|
D|--------------------|-------------------|
A|-3--3--3---5--5--5--|-------------------|
E|--------------------|-3--3--3---5--5--5-|

G|--------------------|------------------------|
D|-------5--7---------|-9--9--9--9---9---------|
A|-3--5---------------|------------------------|
E|--------------5--7--|----------------5--7--0-|

           "Boot leather flashing..." and "This highborn hunter..."
G|----------------------|----------------------------------|--
D|--------0-2-3---2-----|----------------------------------|  |
A|------------------3---|----------------------------------|
E|0---0---------------5-|5---5---5---3--5--5---5---3---3---|
                                                       Repeat 2x
G|------5--7---9--7--5--9--|
D|7--9---------------------|
A|-------------------------|                                  |
E|-------------------------|----------------------------------

G|--------------|
D|7----5--------|
A|--------8--7--|
E|--------------|

Rhythm 1
G|-----------------|-------------------|
D|-----------------|-------------------|
A|------------5--7-|-7--7--7--5---5--3-|
E|7---0---0--------|-------------------|

G|-------------------|-------------------|
D|-------------------|-------------------|
A|-3--3--3--3--------|--------------5--7-|
E|--------------3--5-|-5--5--5--5--------|

G|-------------------|-------------------|
D|-------------------|-------------------|
A|-7--7--7--7---5--7-|-7--7--7--5---5--3-|
E|-------------------|-------------------|
                 Listen for rhythm change here...
G|------------------|---------------------|
D|------------------|--------0-2-3---2----|
A|-3--3--3--3-------|------------------3--|
E|--------------3---|5---5---------------5|

"Unbridled passion..."
G|----------------------------------|
D|----------------------------------|  
A|----------------------------------|
E|5---5---5---3--5--5---5---3---3---|
                                
G|------5--7---9--7--5--9--|
D|7--9---------------------|
A|-------------------------|           
E|-------------------------|
  
                        "Her standing over..."
G|----------------------|----------------------------------|
D|--------0-2-3---2-----|----------------------------------|  
A|------------------3---|----------------------------------|
E|0---0---------------5-|5---5---5---3--5--5---5---3---3---|
                                                       
G|------5--7---9--7--5--9--|
D|7--9---------------------|
A|-------------------------|                                
E|-------------------------|

G|--------------|
D|7----5--------|
A|--------8--7--|
E|--------------|

Intro repeats
A|0----5--7-|

G|-------------2----------|-------------|
D|2--3-2-0----------------|-------------|
A|----------3-----0-------|3--5---------|
E|------------------------|------------0|

G|------------------|
D|-------------2----|
A|2--3-2-0----------|
E|----------3-----0-|

G|-------------------9--9-7----|
D|------7-7-7---------------10-|
A|-----------------------------|
E|0--5---------5--5------------|

G|----------------9--9-7----|-------------------------12-|
D|---7-7-7---------------10-|------------------10-12-----|
A|--------------------------|---7-7-7-5----10------------|
E|5---------5--5------------|5----------8----------------|

G|----------------9--9-7----|---------------------5------|
D|---7-7-7---------------10-|---7-7-7-----------5--------|   
A|--------------------------|--------------5-7-----------|
E|5---------5--5------------|5---------5-----------------|
                                                      
G|----------------9--9-7----|-------------------------12-|
D|---7-7-7---------------10-|------------------10-12-----|
A|--------------------------|---7-7-7-5----10------------|   
E|5---------5--5------------|5----------8----------------|


Below, I give you just the notes. The rhythm is the same as the snare drum.
E|--5---5-----5-----8-----5---5-----5----3-|Repeat 2x

Verse 3; Rhythm 2
G|-------------------|-------------------|
D|-------------------|-------------------|
A|-7--7--7--7---5--7-|7---7---5---5--3---|
E|-------------------|-------------------|

G|-------------------|-------------------|
D|-------------------|-------------------|
A|-3--3--3--3--------|--------------5--7-|
E|--------------3--5-|-5--5--5--5--------|

G|-------------------|-------------------|
D|-------------------|-------------------|
A|-7--7--7--7---5--7-|7---7---5---5--3---|
E|-------------------|-------------------|

G|-------------------|-------------------|
D|-------------------|-------------------|
A|-3--3--3--3--------|-----------------3-|
E|--------------3--5-|-5--5--5--5---3----|

"All should be warned..."
G|--------------------|-------------------|
D|--------------------|-------------------|
A|-3--3--3---5--5--5--|-------------------|
E|--------------------|-3--3--3---5--5--5-|

Rhythm 2
G|-------------------|-------------------|
D|-------------------|-------------------|
A|-7--7--7--7---5--7-|7---7---5---5--3---|
E|-------------------|-------------------|

G|--------------------|-------------------|
D|--------------------|-------------------|
A|-3--3--3---5--5--5--|-------------------|
E|--------------------|-3--3--3---5--5--5-|

G|--------------------|------------------------|
D|-------5--7---------|-9--9--9--9---9---------|
A|-3--5---------------|------------------------|
E|--------------5--7--|----------------5--7--0-|

Outro
A|-5-------|
E|-----0---|
Добавлено: 21.08.2015
Другие материалы по этой песне:
  • Аккорды и текст

Страница создана 07.06.2012
http://primanota.ru/jethro-tull/hunting-girl-chords.htm
Привет, Гость.
Предлагаем пройти революционный курс по гитаре.
Подарок от PrimaNota.Ru, забирай!