PrimaNota.ru - самый крупный в мире бесплатный архив песенных текстов, аккордов, табулатур и нот


Jet - Take It Or Leave It - текст песни, таба, видео

Регистрация Запомнить меня
Войти через:  Facebook Google Twitter Vk Yandex Mail.ru

Jet - Take It Or Leave It - текст песни, таба, видео

Печатать
Просмотров: 124
Song:Take it or leave it
Band:Jet
Album:Get Born
Tabbed by the big eejit. I could probably tab this whole album if I had
the time. This is a brilliant song to jam to.

Intro
guitar 1
e-----------|
B-----------|
G-----------|            10x
D-----------|
A-7-7-7-7-5-|
E-5-5-5-5-3-|

after 3x guitar 2 comes in with
e-5-5-3-5-|
B-5-5-3-5-|
G-6-6-4-6-|
D-7-7-5-7-|
A-7-7-5-7-|
E-5-5-3-5-|

Verse (swift downstrokes at first)
both guitars
e-5-5-5-5-5-5-5-5-5-5-5-5-|     e--------------------------------|
B-5-5-5-5-5-5-5-5-5-5-5-5-|     B-----5---5-5-7-5-7b-7-5-7-5-----|
G-6-6-6-6-6-6-6-6-6-6-6-6-|     G-6-6-5-6-5-5-7-5-7b-7-5-7-5-----|
D-7-7-7-7-7-7-7-7-7-7-7-7-|(2X) D-7-7---7--------------------6-6-|
A-7-7-7-7-7-7-7-7-7-7-7-7-|     A----------------------------7-7-|
E-5-5-5-5-5-5-5-5-5-5-5-5-|     E--------------------------------|
after 1st time just play the first part once

all of the above 3x then
e-10-10-10-10-10-10-10-10-10-10-10-10-------------------------------------|
B-10-10-10-10-10-10-10-10-10-10-10-10--------10----10-12-10-12b-12-10-12b-|
G-11-11-11-11-11-11-11-11-11-11-11-11--11-11-10-11-10-12-10-12b-12-10-12b-|
D-12-12-12-12-12-12-12-12-12-12-12-12--12-12----12------------------------|
A-12-12-12-12-12-12-12-12-12-12-12-12-------------------------------------|
E-10-10-10-10-10-10-10-10-10-10-10-10-------------------------------------|

then back to
e-5-5-5-5-5-5-5-5-5-5-5-5-----------------------------|
B-5-5-5-5-5-5-5-5-5-5-5-5------5---5-7-5-7b-7-5-7-5---|
G-6-6-6-6-6-6-6-6-6-6-6-6--6-6-5-6-5-7-5-7b-7-5-7-5-6-|
D-7-7-7-7-7-7-7-7-7-7-7-7--7-7---7------------------7-|
A-7-7-7-7-7-7-7-7-7-7-7-7-----------------------------|
E-5-5-5-5-5-5-5-5-5-5-5-5-----------------------------|

Chorus (I guess) fast downstrokes all 'round
e-7-7-7-7-7-7-7-7-7-7-7-7-7-7-7-7-|
B-9-9-9-9-9-9-9-9-9-9-9-9-9-9-9-9-|
G-9-9-9-9-9-9-9-9-9-9-9-9-9-9-9-9-|
D-9-9-9-9-9-9-9-9-9-9-9-9-9-9-9-9-|
A-7-7-7-7-7-7-7-7-7-7-7-7-7-7-7-7-|
E-7-7-7-7-7-7-7-7-7-7-7-7-7-7-7-7-|

e-10-10-10-10-10-10-10-10-10-10-10-10-10-10-10-10-|
B-12-12-12-12-12-12-12-12-12-12-12-12-12-12-12-12-|
G-12-12-12-12-12-12-12-12-12-12-12-12-12-12-12-12-|
D-12-12-12-12-12-12-12-12-12-12-12-12-12-12-12-12-|
A-10-10-10-10-10-10-10-10-10-10-10-10-10-10-10-10-|
E-10-10-10-10-10-10-10-10-10-10-10-10-10-10-10-10-|

Intro 4x then

e------------------------------|
B-----5---5-7-5-7b-7-5-7-5-----|
G-6-6-5-6-5-7-5-7b-7-5-7-5-6-6-|
D-7-7---7------------------7-7-|
A------------------------------|
E------------------------------|

Verse
Chorus
Intro 4x

Solo (It goes so fast I'm not completely sure this is right)
guitar 2
e---------------------------|
B-----5-------------5-----5-|
G-6-6-5-6-----5-6-6-5-6---5-|
D-7-7---7-5-7---7-7---7-5---|
A---------------------------|
E---------------------------|

after this bit guitar 1 plays this chord quickly until the end
e-5-|
B-5-|
G-6-|
D-7-|
A-7-|
E-5-|

meanwhile guitar 2 continues like this
e-------5-------5-------5-------5---------------------------------------|
B-5-5-5---5-5-5---5-5-5---5-5-5---5---------------11-11-11-9-11-11-11-9-|
G-----------------------------------7-5-7b-5-7b-5-11-11-11-9-11-11-11-9-|
D-----------------------------------------------------------------------|
A-----------------------------------------------------------------------|
E-----------------------------------------------------------------------|

e--------------------------5-5-5-5-5-5-5-5-5-5-5-5-5-5-----------|
B-14-14-14-12-14-14-14-12--5-5-5-5-5-5-5-5-5-5-5-5-5-5-----------|
G-14-14-14-12-14-14-14-12--6-6-6-6-6-6-6-6-6-6-6-6-6-6-----------|          until the end
D--------------------------7-7-7-7-7-7-7-7-7-7-7-7-7-7-----------|
A--------------------------7-7-7-7-7-7-7-7-7-7-7-7-7-7-----------|
E--------------------------5-5-5-5-5-5-5-5-5-5-5-5-5-5-----------|.........
Добавлено: 27.06.2012
Другие материалы по этой песне:

Страница создана 18.05.2012
http://primanota.ru/jet/take-it-or-leave-it-chords.htm
Привет, Гость.
Предлагаем пройти революционный курс по гитаре.
Подарок от PrimaNota.Ru, забирай!