PrimaNota.ru - самый крупный в мире бесплатный архив песенных текстов, аккордов, табулатур и нот


Jet - Genius - таба, видео

Регистрация Запомнить меня
Войти через:  Facebook Google Twitter Vk Yandex Mail.ru

Jet - Genius - таба, видео

Печатать
Просмотров: 145
-------------------------------------------------------------------------------
			     SONG NAME - Band Name
-------------------------------------------------------------------------------
Tabbed by:JET21
Email:mikemrules9@msn.com

Tuning:standard

Into and beginning to verses-
e|---------------------------------------------------------------------------|
B|---------------------------------------------------------------------------|
G|---------------------------------------------------------------------------|
D|--2-2-----2-0-2-2-------0-2-2-----2-0-2-2--------0-------------------------|
A|---------------------------------------------------------------------------|
E|------0-0---------0-3-0--------0-0---------0-3-0---------------------------|

Verses-
e|---------------------------------------------------------------------------|
B|---------------------------------------------------------------------------|
G|---------2------2-----------------2---------------THE----------------------|
D|-2-------2x5----2x5---2-----2-----2x5-----YOU------------------------------|
A|-2x5-----0------0-----2x5---2x5---0----------GET---------------------------|
E|-0----3-------3----3--0---3-0---3--------------------IDEA------------------|

Pre chorus-
e|---------------------------------------------------------------------------|
B|---------------------------------------------------------------------------|
G|-4--4---2------------------------------------------------------------------|
D|-4--4---2------------------------------------------------------------------|
A|-2--2---0------------------------------------------------------------------|
E|------3--------------------------------------------------------------------|

Chorus-
e|---------------------------------------------------------------------------|
B|---------------------------------------------------------------------------|
G|-5--7--9------5--7--4------------------------------------------------------|
D|-5--7--9------5--7--4------------------------------------------------------|
A|-3--5--7------3--5--2------------------------------------------------------|
E|---------------------------------------------------------------------------|

Solo during chorus- as close as i can get it
e|------12-12-------12-12------12-------12-------------------------------------|
B|-15b---------15b---------15b-----15b-----------------------------------------|
G|-----------------------------------------------------------------------------|
D|-----------------------------------------------------------------------------|
A|-----------------------------------------------------------------------------|
E|-----------------------------------------------------------------------------|

Solo
e|-----------------------------------------------------------------------------|
B|---------------------------------------------------7b9-9r7--5----------------|
G|--4--4-4-4-4-4------------------4-4---------7b9r7----------7-----------------|
D|--7b-9-9-9-9-9(start releasing)-8-8--7b9r7-----------------------------------|
A|-----------------------------------------------------------------------------|
E|-----------------------------------------------------------------------------|

e|-15br-15-15br-15-15br-15-----------------------------------------------------|
B|--------------------------17-15-17-15----------------------------------------|
G|--------------------------------------16-14br-14-12-14-12--------------------|
D|----------------------------------------------------------14-13--------------|
A|-----------------------------------------------------------------------------|
E|-----------------------------------------------------------------------------|



| /  slide up
| \  slide down
| h  hammer-on
| p  pull-off
| ~  vibrato
| +  harmonic
| x  Mute note
===============================================================================
Добавлено: 27.06.2013
Другие материалы по этой песне:
  • Аккорды и текст

Страница создана 27.06.2013
http://primanota.ru/jet/genius-chords.htm
Привет, Гость.
Предлагаем пройти революционный курс по гитаре.
Подарок от PrimaNota.Ru, забирай!